Sound will begin in 5 seconds

satan 2

Chords
01234567891011121314151617181920212223
E
B
G
D
A
E
B
0 1 2 3 4 5 6 7 8 9 10 11 12 13 14 15 16 17 18 19 20 21 22 23
Song Science #1: How Pros Use 6 Chords to Write Hit Songs
(/) Slide Up  (\) Slide Down  (h) Hammer On  (p) Pull Off  (b) Bend (r) Release (v) Vibrato

Stave 1:

E|-----------------------------------------------------------------------------
B|-----------------------------------------------------------------------------
G|-----------------------------------------------------------------------------
D|--------------------------------5--5--4--5-----------------------------------
A|--------------------------------7--7--6--7-----------------------4--5--4--3--
E|--0-----0--0--0-----0--0--0--------------------0--0--0-----0--0--2--3--2--1--

Stave 2:

E|--------------------------------------------------------------------
B|--------------------------------------------------------------------
G|--------------------------------------------------------------------
D|--------------------------------5--5--4-----------------3--2-----6--
A|--2-----------------------------7--7--6-----2--5--4--2--1--0--5--4--
E|--0-----0--0--0-----0--0--0-----------------0--3--2--0--------3-----

Stave 3:

E|--------------------------------------------------------------------------------------
B|--------------------------------------------------------------------------------------
G|--------------------------------------------------------------------------------------
D|--------------------------------------------------------------------------------------
A|--------------------------------------------------------------------------4--5--4--3--
E|--0-----0--0--0-----0--0--0-----0--0--0--0--0--0--0-----0--0--0-----0--0--2--3--2--1--

Stave 4:

E|--------------------------------------------------------------------------------
B|--------------------------------------------------------------------------------
G|--------------------------------------------------------------------------------
D|--------------------------------5--5--4--------------------------------------3--
A|--------------------------------7--7--6-----------------------------5--4--2--1--
E|--0-----0--0--0-----0--0--0-----------------0-----0--0--0--0--0--0--3--2--0-----

Stave 5:

E|--------------------------------------------------------------------------
B|--------------------------------------------------------------------------
G|--------------------------------------------------------------------------
D|--------------------------------------------------------------------------
A|--------------------------------------------------------------------------
E|--5--5--5--5--5--5--8--7--5--8--7--5--6--6--6--6--6--6--9--8--6--9--8--6--

Stave 6:

E|----------------------------------------------------------------------------------
B|----------------------------------------------------------------------------------
G|----------------------------------------------------------------------------------
D|----------------------------------------------------------------------------------
A|----------------------------------------------------------------------------------
E|--8--8--8--8--8--8--11--10--8--11--10--8--9--9--9--9--9--9--12--11--9--12--11--9--

Stave 7:

E|--------------------------------------------------------------------------
B|--------------------------------------------------------------------------
G|--------------------------------------------------------------------------
D|--------------------------------------------------------------------------
A|--------------------------------------------------------------------------
E|--5--5--5--5--5--5--8--7--5--8--7--5--6--6--6--6--6--6--9--8--6--9--8--6--

Stave 8:

E|------------------------------------------------------
B|------------------------------------------------------
G|------------------------------------------------------
D|------------------------------------------------------
A|------------------------------------------11--11--14--
E|--8--8--8--8--8--8--11--10--8--11--10--8--9---9---12--

Stave 9:

E|---------------------------------------------------------------------------------------------
B|---------------------------------------------------------------------------------------------
G|---------------------------------------------------------------------------------------------
D|---------------------------------------2-----1-----------------------------------------------
A|--2--2--2--6--2--2--5--2--2h3p2-----------3-----2-----------6--------5-----------------------
E|--0--0--0--4--0--0--3--0---------3--2--------------0--0--0--4--0--0--3--0--1--1--4--4--3--3--

Stave 10:

E|------------------------------------------------------------------------------------------------------
B|------------------------------------------------------------------------------------------------------
G|------------------------------------------------------------------------------------------------------
D|---------------------------------------2-----1--------------------------------------------------------
A|-----------6--------5-----2h3p2-----------3-----2--------------3-----2-----------------------------3--
E|--0--0--0--4--0--0--3--0---------3--2--------------0--0--1--3-----4-----3--0-----0--0--0--0--0--0--1--

Stave 11:

E|------------------------------------------------------------------------------
B|------------------------------------------------------------------------------
G|------------------------------------------------------------------------------
D|---------------------------2-----1--------------------------------------------
A|--2-----------2h3p2-----------3-----2-----------------------------------------
E|--0-----0--0---------3--2--------------0--1--3--4--3--3--3--4--4--4--1--1--1--

Stave 12:

E|---------------------------------------------------------------------
B|---------------------------------------------------------------------
G|---------------------------------------------------------------------
D|---------------------------2-----1-----------------------------------
A|--2-----------2h3p2-----------3-----2--------------------------------
E|--0-----0--0---------3--2--------------0--1--3--4--1--1--1--1--3--4--

http://www.guitartabcreator.com
Guitar Tab Creator is intended to store guitar tab created through the tool. It currently does not support in-line text editing. Any text you place in here will be lost. If you need to comment on your tab, please use the "Tab Notes" section located below.