Licks Legato Minor Pentatonic

01234567891011121314151617181920212223
E
B
G
D
A
E
B
0 1 2 3 4 5 6 7 8 9 10 11 12 13 14 15 16 17 18 19 20 21 22 23
(/) Slide Up  (\) Slide Down  (h) Hammer On  (p) Pull Off  (b) Bend (r) Release (v) Vibrato

Stave 1:

E|-----------------------------|--
B|-----------------------------|--
G|-----------------------------|--
D|--15h18p15-------------------|--
A|------------18p16--13h16h18--|--
E|-----------------------------|--

Stave 2:

E|--------------------------------
B|--------------------------------
G|--8h10p8------------------------
D|----------11p8------------8h11--
A|----------------11--8h11--------
E|--------------------------------

Stave 3:

E|-----------------------------------------
B|-----------------------------------------
G|--12b14r12---------------------------12--
D|------------14p12-------------12h14------
A|-------------------15--12h15-------------
E|-----------------------------------------

Stave 4:

E|-------------------------------------
B|-------------------------------------
G|---------------------------------14--
D|--17p14-------------------14h17------
A|---------17--15p12h15h17-------------
E|-------------------------------------

Stave 5:

E|------------------------------------
B|------------------------------------
G|--12b14r12--------------------------
D|------------14------------------14--
A|----------------17p15p12h15h17------
E|------------------------------------

Stave 6:

E|----------------------------------------------
B|----------------------------------------------
G|--12b14r12--------------------------------14--
D|------------17p14------------------14h17------
A|-------------------17p15p12h15h17-------------
E|----------------------------------------------

Stave 7:

E|-----------------------------------------
B|-------------------------------------10--
G|--11p9p7--------------------7h9--11------
D|----------9p7----------7h9---------------
A|---------------9--7h9--------------------
E|-----------------------------------------

Stave 8:

E|--------------------------------------
B|--------------------------------------
G|--14b16r14----------------------------
D|------------16p14-------------14--16--
A|-------------------17p14--17----------
E|--------------------------------------

Stave 9:

E|------------------------------------
B|------------------------------------
G|--14b16r14--------------------------
D|------------16p14---------------16--
A|-------------------17p14h17h19------
E|------------------------------------

							http://www.guitartabcreator.com
Chords

Tab Notes
Each note should have the same time duration, even the hammered and pulled notes. Each stave is another lick, which should be repeated and brought to speed. - 1st Stave: Play notes in groups 3-2-3 (as graphically in groups). You can pronounce the 1st note of each group, or at least imagine, that it is pronounced). - 2nd Stave: Use Sweep Picking for the picked notes. Play in groups: 3-3-4,, or 3-3-2-2. - 3rd Stave: Hold bended note longer. After released note, group as 3-5. - 4th to 9th Stave: Sweep the picked notes
Instruments
{"strings":[[[".",".",".",".",".",".",".",".",".",".",".",".",".","|"],[".",".",".",".",".",".",".",".",".",".",".",".",".","|"],[".",".",".",".",".",".",".",".",".",".",".",".",".","|"],[15,"h",18,"p",15,".",".",".",".",".",".",".",".","|"],[".",".",".",".",".",18,"p",16,13,"h",16,"h",18,"|"],[".",".",".",".",".",".",".",".",".",".",".",".",".","|"]],[[".",".",".",".",".",".",".",".",".",".",".",".",".",".","."],[".",".",".",".",".",".",".",".",".",".",".",".",".",".","."],[8,"h",10,"p",8,".",".",".",".",".",".",".",".",".","."],[".",".",".",".",".",11,"p",8,".",".",".",".",8,"h",11],[".",".",".",".",".",".",".",".",11,8,"h",11,".",".","."],[".",".",".",".",".",".",".",".",".",".",".",".",".",".","."]],[[".",".",".",".",".",".",".",".",".",".",".",".",".",".",".","."],[".",".",".",".",".",".",".",".",".",".",".",".",".",".",".","."],[12,"b",14,"r",12,".",".",".",".",".",".",".",".",".",".",12],[".",".",".",".",".",14,"p",12,".",".",".",".",12,"h",14,"."],[".",".",".",".",".",".",".",".",15,12,"h",15,".",".",".","."],[".",".",".",".",".",".",".",".",".",".",".",".",".",".",".","."]],[[".",".",".",".",".",".",".",".",".",".",".",".",".",".","."],[".",".",".",".",".",".",".",".",".",".",".",".",".",".","."],[".",".",".",".",".",".",".",".",".",".",".",".",".",".",14],[17,"p",14,".",".",".",".",".",".",".",".",14,"h",17,"."],[".",".",".",17,15,"p",12,"h",15,"h",17,".",".",".","."],[".",".",".",".",".",".",".",".",".",".",".",".",".",".","."]],[[".",".",".",".",".",".",".",".",".",".",".",".",".",".",".","."],[".",".",".",".",".",".",".",".",".",".",".",".",".",".",".","."],[12,"b",14,"r",12,".",".",".",".",".",".",".",".",".",".","."],[".",".",".",".",".",14,".",".",".",".",".",".",".",".",".",14],[".",".",".",".",".",".",17,"p",15,"p",12,"h",15,"h",17,"."],[".",".",".",".",".",".",".",".",".",".",".",".",".",".",".","."]],[[".",".",".",".",".",".",".",".",".",".",".",".",".",".",".",".",".",".",".",".","."],[".",".",".",".",".",".",".",".",".",".",".",".",".",".",".",".",".",".",".",".","."],[12,"b",14,"r",12,".",".",".",".",".",".",".",".",".",".",".",".",".",".",".",14],[".",".",".",".",".",17,"p",14,".",".",".",".",".",".",".",".",".",14,"h",17,"."],[".",".",".",".",".",".",".",".",17,"p",15,"p",12,"h",15,"h",17,".",".",".","."],[".",".",".",".",".",".",".",".",".",".",".",".",".",".",".",".",".",".",".",".","."]],[[".",".",".",".",".",".",".",".",".",".",".",".",".",".",".",".",".",".",".","."],[".",".",".",".",".",".",".",".",".",".",".",".",".",".",".",".",".",".",".",10],[11,"p",9,"p",7,".",".",".",".",".",".",".",".",".",".",7,"h",9,11,"."],[".",".",".",".",".",9,"p",7,".",".",".",".",7,"h",9,".",".",".",".","."],[".",".",".",".",".",".",".",".",9,7,"h",9,".",".",".",".",".",".",".","."],[".",".",".",".",".",".",".",".",".",".",".",".",".",".",".",".",".",".",".","."]],[[".",".",".",".",".",".",".",".",".",".",".",".",".","."],[".",".",".",".",".",".",".",".",".",".",".",".",".","."],[14,"b",16,"r",14,".",".",".",".",".",".",".",".","."],[".",".",".",".",".",16,"p",14,".",".",".",".",14,16],[".",".",".",".",".",".",".",".",17,"p",14,17,".","."],[".",".",".",".",".",".",".",".",".",".",".",".",".","."]],[[".",".",".",".",".",".",".",".",".",".",".",".",".",".",".","."],[".",".",".",".",".",".",".",".",".",".",".",".",".",".",".","."],[14,"b",16,"r",14,".",".",".",".",".",".",".",".",".",".","."],[".",".",".",".",".",16,"p",14,".",".",".",".",".",".",".",16],[".",".",".",".",".",".",".",".",17,"p",14,"h",17,"h",19,"."],[".",".",".",".",".",".",".",".",".",".",".",".",".",".",".","."]]],"numberofstrings":6,"notes":["E","B","G","D","A","E","B"],"capo":0,"stringnotes":["E4","B3","G3","D3","A2","E2"],"comments":["Stave 1:","Stave 2:","Stave 3:","Stave 4:","Stave 5:","Stave 6:","Stave 7:","Stave 8:","Stave 9:"],"timing":[["W",null,"W",null,"W","W",null,"W","W",null,"W",null,"W"],["W",null,"W",null,"W","W",null,"W","W","W",null,"W","W",null,"W"],["W",null,"W",null,"W","W",null,"W","W","W",null,"W","W",null,"W","W"],["W",null,"W","W","W",null,"W",null,"W",null,"W","W",null,"W","W"],["W",null,"W",null,"W","W","W",null,"W",null,"W",null,"W",null,"W","W"],["W",null,"W",null,"W","W",null,"W","W",null,"W","W","W",null,"W",null,"W","W",null,"W","W"],["W",null,"W",null,"W","W",null,"W","W","W",null,"W","W",null,"W","W",null,"W","W","W"],["W",null,"W",null,"W","W",null,"W","W",null,"W","W","W","W"],["W",null,"W",null,"W","W",null,"W","W",null,"W",null,"W",null,"W","W"]],"timingvisible":false,"tabcounter":16,"stave":8,"totalstaves":9,"instrument":"6guitar","selectedtuning":"6_standard","version":"13"}

Member for

2 months 2 weeks
Submitted by Rihanna11 on Sun, 2021-01-24 04:25