Skip to main content

Lick Paddletone Minor Blues

0 1 2 3 4 5 6 7 8 9 10 11 12 13 14 15 16 17 18 19 20 21 22 23
E
B
G
D
A
E
0 1 2 3 4 5 6 7 8 9 10 11 12 13 14 15 16 17 18 19 20 21 22 23
(/) Slide Up  (\) Slide Down  (h) Hammer On  (p) Pull Off  (b) Bend (r) Release (v) Vibrato

Stave 1:

E|--------------------|--------------------|--------6--------6--|--8-----------------
B|--------6--------6--|--7-----6--7--8-----|--7--8--------8-----|--------8-----7-----
G|--5--8-----5--8-----|-----5-----------5--|-----------5--------|-----5-----5-----8--
D|--------------------|--------------------|--------------------|--------------------
A|--------------------|--------------------|--------------------|--------------------
E|--------------------|--------------------|--------------------|--------------------

Stave 2:

E|--------------------|--------6-----------|--6--8-----6--------|--------------------
B|--------6--7-----6--|--7--8--------7--8--|--------------8--7--|--6-----7--6--------
G|--5--8--------5-----|-----------5--------|--------5-----------|-----5--------8--5--
D|--------------------|--------------------|--------------------|--------------------
A|--------------------|--------------------|--------------------|--------------------
E|--------------------|--------------------|--------------------|--------------------

							http://www.guitartabcreator.com
Chords

Tab Notes
Instruments
{"strings":[[[".",".",".",".",".",".","|",".",".",".",".",".",".","|",".",".",6,".",".",6,"|",8,".",".",".",".","."],[".",".",6,".",".",6,"|",7,".",6,7,8,".","|",7,8,".",".",8,".","|",".",".",8,".",7,"."],[5,8,".",5,8,".","|",".",5,".",".",".",5,"|",".",".",".",5,".",".","|",".",5,".",5,".",8],[".",".",".",".",".",".","|",".",".",".",".",".",".","|",".",".",".",".",".",".","|",".",".",".",".",".","."],[".",".",".",".",".",".","|",".",".",".",".",".",".","|",".",".",".",".",".",".","|",".",".",".",".",".","."],[".",".",".",".",".",".","|",".",".",".",".",".",".","|",".",".",".",".",".",".","|",".",".",".",".",".","."]],[[".",".",".",".",".",".","|",".",".",6,".",".",".","|",6,8,".",6,".",".","|",".",".",".",".",".","."],[".",".",6,7,".",6,"|",7,8,".",".",7,8,"|",".",".",".",".",8,7,"|",6,".",7,6,".","."],[5,8,".",".",5,".","|",".",".",".",5,".",".","|",".",".",5,".",".",".","|",".",5,".",".",8,5],[".",".",".",".",".",".","|",".",".",".",".",".",".","|",".",".",".",".",".",".","|",".",".",".",".",".","."],[".",".",".",".",".",".","|",".",".",".",".",".",".","|",".",".",".",".",".",".","|",".",".",".",".",".","."],[".",".",".",".",".",".","|",".",".",".",".",".",".","|",".",".",".",".",".",".","|",".",".",".",".",".","."]]],"numberofstrings":6,"notes":["E","B","G","D","A","E","B"],"capo":0,"stringnotes":["E4","B3","G3","D3","A2","E2"],"comments":["Stave 1:","Stave 2:"],"timing":[["W","W","W","W","W","W",null,"W","W","W","W","W","W",null,"W","W","W","W","W","W","W","W","W","W","W","W","W"],["W","W","W","W","W","W","W","W","W","W","W","W","W","W","W","W","W","W","W","W","W","W","W","W","W","W","W"]],"timingvisible":false,"tabcounter":27,"stave":1,"totalstaves":2,"instrument":"6guitar","selectedtuning":"6_standard","version":"13"}
Submitted by Rihanna11 on