Sound will begin in 5 seconds

Takes a flower to tango

Chords
01234567891011121314151617181920212223
E
B
G
D
A
E
B
0 1 2 3 4 5 6 7 8 9 10 11 12 13 14 15 16 17 18 19 20 21 22 23
Song Science #1: How Pros Use 6 Chords to Write Hit Songs
(/) Slide Up  (\) Slide Down  (h) Hammer On  (p) Pull Off  (b) Bend (r) Release (v) Vibrato

Stave 1:

G|--------------------------------------------------
D|--------------------------------------------------
A|--2-----7--6--5--4--3-----------4--5--------------
E|--------------------------3--2--------2--3--0--2--

Stave 2:

G|-----------------------------------------------------------------
D|-----------------------------------------------------------------
A|-----------------------------------------------------------------
E|--0-----0-----0-----0-----0-----0-----0-----0--0--0-----0-----0--

Stave 3:

G|--10--9--17----------16------15----------------------------------10--9--18----------17------16----------------------------------
D|-------------10--11------11------11------17--11----------11--16-------------10--11------11------11------17--11----------11--16--
A|-------------------------------------10----------10--17---------------------------------------------10----------10--17----------
E|--------------------------------------------------------------------------------------------------------------------------------

Stave 4:

G|--9-----------8-----------
D|--9-----------8-----------
A|--7-----------7-----------
E|--------------------------

Stave 5:

G|-----------10--------9--------------10-----------------10--------9--------------------
D|--9--8---------8-----------9--8---------8-----9--8---------8-----------9-----9-----9--
A|--------7---------7--------------7---------7--------7---------7-----------------------
E|--------------------------------------------------------------------------------------

Stave 6:

G|-----------------------------------------------
D|-----------8-----8-----9--8--------------------
A|-----------------------------------------------
E|-----------------------------------------------

Stave 7:

G|-----
D|-----
A|-----
E|-----

http://www.guitartabcreator.com
Guitar Tab Creator is intended to store guitar tab created through the tool. It currently does not support in-line text editing. Any text you place in here will be lost. If you need to comment on your tab, please use the "Tab Notes" section located below.