Sound will begin in 5 seconds

Ode to Aubrey

Chords
01234567891011121314151617181920212223
E
B
G
D
A
E
B
0 1 2 3 4 5 6 7 8 9 10 11 12 13 14 15 16 17 18 19 20 21 22 23
Song Science #1: How Pros Use 6 Chords to Write Hit Songs
(/) Slide Up  (\) Slide Down  (h) Hammer On  (p) Pull Off  (b) Bend (r) Release (v) Vibrato

Stave 1:

E|--10-----10--9--7-------------------------------------------------------------------------------------------
B|------7---------------9-----10-----10--9--7---------------------------------------------2h3--2--0--------2--
G|-------------------9-----9------6---------------9-----6--------9\6--4--------6\4--2-------------------1-----
D|---------------------------------------------7-----7--------7-------------6----------4-------------2--------
A|---------------------------------------------------------9-------------7------------------------------------
E|------------------------------------------------------------------------------------------------------------

Stave 2:

E|----------------------------------------------------------------------------------
B|-------------5--5h7--5-------------------------------5--5h7--5--------------------
G|--2--4--4/6-------------4-----------4-----2--4--4\6-------------4-----------4-----
D|--0---------------------------6-----------0---------------------------6-----------
A|---------------------------7-----7-----7---------------------------7-----7-----7--
E|----------------------------------------------------------------------------------

Stave 3:

E|----------------------------------------------------------------------------------------------------
B|-------------5--7--5--10------------10h12--9-----------------------------------------5--------------
G|--2--4--4\6----------------------9----------------9--------------9h11-----9/2-----2--------4-----6--
D|--0--------------------------11--------------------------11------------0-------0--------------------
A|--------------------------9-------------------12-----12------12-------------------------2-----2-----
E|----------------------------------------------------------------------------------------------------

Stave 4:

E|------------------------------------------------------------------------------
B|------------------------------------0-----------0h2-------------5--7--5--7/9--
G|--2-----------2h4--6-----------6h7-------------------2--4--4\6-----------7-9--
D|-----------4----------------7----------------2-------0-------------------0----
A|--------4----------------7----------------2-----------------------------------
E|-----2----------------5----------------0--------------------------------------

http://www.guitartabcreator.com
Guitar Tab Creator is intended to store guitar tab created through the tool. It currently does not support in-line text editing. Any text you place in here will be lost. If you need to comment on your tab, please use the "Tab Notes" section located below.