Sound will begin in 5 seconds

Art School Wannabe Solo by Sorority Noise

01234567891011121314151617181920212223
E
B
G
D
A
E
B
0 1 2 3 4 5 6 7 8 9 10 11 12 13 14 15 16 17 18 19 20 21 22 23
Song Science #1: How Pros Use 6 Chords to Write Hit Songs
(/) Slide Up  (\) Slide Down  (h) Hammer On  (p) Pull Off  (b) Bend (r) Release (v) Vibrato

Stave 1:

E|------------------------------------------------------------------------------------------------------
B|------------------------------------------------------------------------------------------------------
G|----------------------------------------------11----------------------11--13--15--13--11------11--13--
D|--------------------------13--11------11--13------13--11--13--13--11----------------------13----------
A|--6--9--11--9--11--9--13----------13------------------------------------------------------------------
E|------------------------------------------------------------------------------------------------------

Stave 2:

E|--------------------11h9p7p9-----14--13------------------14--13------------------14--13--------------
B|------------11--14-----------------------14--11------------------14--11------------------14--11------
G|--11h13p11---------------------------------------13--11------------------13--11------------------13--
D|-----------------------------------------------------------------------------------------------------
A|-----------------------------------------------------------------------------------------------------
E|-----------------------------------------------------------------------------------------------------

Stave 3:

E|------14--13------16v--14--16h18--18--14--16--18--14--16--18--18--18--19--18--16--------------
B|--------------14------------------------------------------------------------------19--16--14--
G|--11------------------------------------------------------------------------------------------
D|----------------------------------------------------------------------------------------------
A|----------------------------------------------------------------------------------------------
E|----------------------------------------------------------------------------------------------

http://www.guitartabcreator.com
Guitar Tab Creator is intended to store guitar tab created through the tool. It currently does not support in-line text editing. Any text you place in here will be lost. If you need to comment on your tab, please use the "Tab Notes" section located below.