Sound will begin in 5 seconds

Game of thrones Theme

Chords
01234567891011121314151617181920212223
E
B
G
D
A
E
B
0 1 2 3 4 5 6 7 8 9 10 11 12 13 14 15 16 17 18 19 20 21 22 23
Song Science #1: How Pros Use 6 Chords to Write Hit Songs
(/) Slide Up  (\) Slide Down  (h) Hammer On  (p) Pull Off  (b) Bend (r) Release (v) Vibrato

Stave 1:

E|----------------------------------------------------------------------
B|----------------------------------------------------------------------
G|---------12-----------------------------------------------------------
D|--10h13------10-------------------------------------------------------
A|-----------------10-----------10-----6h8--5--8----------8-----5h6--3--
E|---------------------8--8h10------8-------------6--6h8-----6----------

Stave 2:

E|---------------------------------------------
B|---------------------------------------------
G|---------------------------------------------
D|---------------------------------------------
A|--10--------10-----6--8--5--8-----5h6-----3--
E|------8h10------8--------------6-------6-----

Stave 3:

E|------------------------------------------------------------
B|--13--11------------------------13--11----------------------
G|--12--10------12-----8--10--12--12--10------12-----8--7--5--
D|--10--8---10--12--6--8--10--12--10--8---10--12--6--8--7--5--
A|----------10--10--6--6--8---10----------10--10--6--6--5--3--
E|----------8-------4---------------------8-------4-----------

http://www.guitartabcreator.com
Guitar Tab Creator is intended to store guitar tab created through the tool. It currently does not support in-line text editing. Any text you place in here will be lost. If you need to comment on your tab, please use the "Tab Notes" section located below.