Sound will begin in 5 seconds

Riffmeistro 2

01234567891011121314151617181920212223
E
B
G
D
A
E
B
0 1 2 3 4 5 6 7 8 9 10 11 12 13 14 15 16 17 18 19 20 21 22 23
(/) Slide Up  (\) Slide Down  (h) Hammer On  (p) Pull Off  (b) Bend (r) Release (v) Vibrato

Stave 1:

E|---------------------
B|---------------------
G|---------------------
D|------------------4--
A|---------2--3--4-----
E|--2p0h2--------------

Stave 2:

E|-----------------------------------------------------------------------------
B|-----------------------------------------------------------------------------
G|-----------------------------------------------------------------------------
D|-----------------------------------------------------------------------------
A|--------------0-----------------------------------0-----2--0-----------------
E|--2--0--2--0--------2--0--2--0--2-----2--0--2--0--------------2--0--2--0--2--

Stave 3:

E|--------------------------------------------------------------------------------------------
B|--------------------------------------------------------------------------------------------
G|--------------------------------------------------------------------------------------------
D|--------------------------------------------------------------------------------------------
A|--------------------5-----------------------------------5--7--5--------------------5--6--7--
E|--5--6--7--5--7--5--------7--5--7--5--7-----7--5--7--5-----------7--5--7--5--7--------------

Stave 4:

E|-----------------------------------------------
B|-----------------------------------------------
G|-----------------------------------------------
D|--------------------------------------------0--
A|--7--6-----------0--------------------0--------
E|--------5-----------0--2--3--2-----------0-----

http://www.guitartabcreator.com
Guitar Tab Creator is intended to store guitar tab created through the tool. It currently does not support in-line text editing. Any text you place in here will be lost. If you need to comment on your tab, please use the "Tab Notes" section located below.