Sound will begin in 5 seconds

Riff

Chords
01234567891011121314151617181920212223
E
B
G
D
A
E
B
0 1 2 3 4 5 6 7 8 9 10 11 12 13 14 15 16 17 18 19 20 21 22 23
(/) Slide Up  (\) Slide Down  (h) Hammer On  (p) Pull Off  (b) Bend (r) Release (v) Vibrato

Stave 1:

E|--------------------------------------------------------------------------------
B|--------------------------------------------------------------------------5--7--
G|-----2-----2--4--2--4b5--4--2--4--2--------2-----2--4--2--4b5--4--2--4/6--------
D|--4-----4----------------------------4--4-----4---------------------------------
A|--------------------------------------------------------------------------------
E|--------------------------------------------------------------------------------

Stave 2:

E|----------------------------------------------------------------------------
B|----------------------------------------2-----------------------------------
G|-----2-----2--4--2--4b5--4--2--4--2-----2-----------------------------------
D|--4-----4----------------------------4-----4--2-----------------------------
A|-------------------------------------------------4--3--2--3--2-----2--------
E|----------------------------------------------------------------5-----5--2--

Stave 3:

E|------------------------------------------------------------------------------
B|---------------------------------------------------------------------2--------
G|---------------------------------------------------------------------2--------
D|---------------------------------------------------------------2--------4--2--
A|-----0-----0--2--0--2b3--2--0--2--0--------0-----0--2--0--2h4-----4-----------
E|--2-----2----------------------------2--2-----2-------------------------------

Stave 4:

E|---------------------------------------------------5--7--7/9--7--9--9/12--9--12--
B|---------------------------------------------5--7--------------------------------
G|-----2-----2--4--2--4b5--4--2--4--2-----4/6--------------------------------------
D|--4-----4----------------------------4-------------------------------------------
A|---------------------------------------------------------------------------------
E|---------------------------------------------------------------------------------

Stave 5:

E|--12b14--12--9--12--9------12-------------------------12b14--12--9--12--9------12----------------------------------
B|-----------------------12--12b14--12--10--12--10---------------------------12--12b14--12--10--12b14r12--10---------
G|--------------------------------------------------11--------------------------------------------------------11--9--
D|-------------------------------------------------------------------------------------------------------------------
A|-------------------------------------------------------------------------------------------------------------------
E|-------------------------------------------------------------------------------------------------------------------

Stave 6:

E|--
B|--
G|--
D|--
A|--
E|--

http://www.guitartabcreator.com
Guitar Tab Creator is intended to store guitar tab created through the tool. It currently does not support in-line text editing. Any text you place in here will be lost. If you need to comment on your tab, please use the "Tab Notes" section located below.