Sound will begin in 5 seconds

Drowning solo

Chords
01234567891011121314151617181920212223
E
B
G
D
A
E
B
0 1 2 3 4 5 6 7 8 9 10 11 12 13 14 15 16 17 18 19 20 21 22 23
(/) Slide Up  (\) Slide Down  (h) Hammer On  (p) Pull Off  (b) Bend (r) Release (v) Vibrato

Stave 1:

E|--------------------------------------------------------------
B|------------------------------------------------------5h7--7--
G|------------2--------------2-----2--4--4/5\4--2--4/6----------
D|--4--2h4p2-----4--4--2--4-----4-------------------------------
A|--------------------------------------------------------------
E|--------------------------------------------------------------

Stave 2:

E|--------5--5--7b9r8b9--5---------------------------2----------------------------
B|--5--7--------------------7--5--------------------------------------------------
G|--------------------------------6\4--2-----2--4b6-----6r4--2--4--2-----2-----2--
D|----------------------------------------4---------------------------4-----4-----
A|--------------------------------------------------------------------------------
E|--------------------------------------------------------------------------------

Stave 3:

E|----------------------------------------------------------------5-----5--7--8p7p5--
B|--4b5r4--2---------------------2--------------------------5--7-----7---------------
G|------------4--4b6r4--2--------2-----2--4--4b6r4--2--4/6---------------------------
D|-------------------------4--2-----4------------------------------------------------
A|-----------------------------------------------------------------------------------
E|-----------------------------------------------------------------------------------

Stave 4:

E|--7--5-----5--7/9--12--12b14--12--9--12p9------9----------------9--12--9------9--
B|--------7----------------------------------12-----12p10--12b14------------12-----
G|---------------------------------------------------------------------------------
D|---------------------------------------------------------------------------------
A|---------------------------------------------------------------------------------
E|---------------------------------------------------------------------------------

Stave 5:

E|------------------------------------------------------------------------------------------
B|--12b14r12--10--12--10-------------10---------------------------10------------------------
G|------------------------11--9--11------11--9--11--9------9--11------11--9------9----------
D|-----------------------------------------------------11--------------------11-----11--10--
A|------------------------------------------------------------------------------------------
E|------------------------------------------------------------------------------------------

Stave 6:

E|---------------------------------------------
B|---------------------------------------------
G|---------------------------------------------
D|--9h10p9------9------------------------------
A|----------12-----12--9--7--7--7--7--7--7--9--
E|---------------------------------------------

Stave 7:

E|--------------------------------------------------------------------------------------12h14--14--
B|-----------------------------------------------------10------10--12b14r12--10--12/14-------------
G|----------------------------------------------9--11------11--------------------------------------
D|-----------------7-----7--9--9/10\9--7--9/11-----------------------------------------------------
A|--7--8--9--7--9-----9----------------------------------------------------------------------------
E|-------------------------------------------------------------------------------------------------

Stave 8:

E|--0--17b19h19--17p14--17p14-------------14------14--
B|--0--------------------------14--17b19------17------
G|----------------------------------------------------
D|----------------------------------------------------
A|----------------------------------------------------
E|----------------------------------------------------

Stave 9:

E|--17p14------14----------------------------------------------------------------
B|---------17------17p14--17p14------14----------------14--17------14------------
G|-------------------------------16------16p14--16b18----------16------16b18r16--
D|-------------------------------------------------------------------------------
A|-------------------------------------------------------------------------------
E|-------------------------------------------------------------------------------

Stave 10:

E|--------------------------------------------------------------
B|------------------------------------------------------14------
G|--14--16p14-------------------------------------------14------
D|-------------16--16--16p14------16--16p14------16p14------16--
A|----------------------------16-------------16-----------------
E|--------------------------------------------------------------

Stave 11:

E|---------------------------------------------------------------------------
B|---------------------------------------------------------------------------
G|---------------------------------------------------------------------------
D|--14--16--14------14-------------------------------------------------------
A|--------------16------16--15--14h15p14------14-----------------12------12--
E|----------------------------------------17------17p14--12--14------14------

Stave 12:

E|-----------------------------------------------------------------------------------------------
B|-----------------------------------------------------------------------------------------------
G|------------------------------------------------------------------------18r16------14--16--14--
D|-----------------------------------------------14--16p14------14h16p14---------16--------------
A|--------------12------12--14/15\14--12--14/16-------------16-----------------------------------
E|--14--12--14------14---------------------------------------------------------------------------

Stave 13:

E|----------------17-----17-----
B|----------------17-----17-----
G|--16b18--16b18--16b18--16b18--
D|------------------------------
A|------------------------------
E|------------------------------

http://www.guitartabcreator.com
Guitar Tab Creator is intended to store guitar tab created through the tool. It currently does not support in-line text editing. Any text you place in here will be lost. If you need to comment on your tab, please use the "Tab Notes" section located below.