Sound will begin in 5 seconds

6/8e tab voor Guus

01234567891011121314151617181920212223
E
B
G
D
A
E
B
0 1 2 3 4 5 6 7 8 9 10 11 12 13 14 15 16 17 18 19 20 21 22 23
(/) Slide Up  (\) Slide Down  (h) Hammer On  (p) Pull Off  (b) Bend (r) Release (v) Vibrato

Stave 1:

E|--------------------------------------------------------------------------
B|--------------------------------------------------------------------------
G|-----------------------------------------------------------------------8--
D|-----3-----1-----------5--4--3--1--------3-----1-----------3--4--5--8-----
A|--3-----3-----3--1-----------------1--3-----3-----3--1--------------------
E|--------------------3-----------------------------------3-----------------

Stave 2:

E|------------------------------------------------------------------------------------
B|------------------------------------------------------------------------------------
G|---------8---------------------------------------8-----------------------12--10--8--
D|--10--8-----10--8-------------------------10--8-----10--8---------------------------
A|-------------------10--9--8------8-------------------------10--9--8-----------------
E|-----------------------------11-----6--7-----------------------------11-------------

Stave 3:

E|---------------------------------------------------------------------
B|---------------------------------------------------------------------
G|---------8-----------------------------------------------------------
D|--10--8-----10--8----------------------------------------------------
A|-------------------10--9--8------8--------6--------------------------
E|-----------------------------11-----6--7-----8--6--8--6--3--6--3--1--

Stave 4:

E|--------------------------------------------------
B|--------------------------------------------------
G|--------------------------------------------------
D|--1--1--1--1--------------------------3--3--3-----
A|--------------3--1--3--1-----1-----------------3--
E|--------------------------3-----3--1--------------

Stave 5:

E|-----------------------------------------------------------------------------
B|-----------------------------------------------------------------------------
G|-----------------------------------------------------------------------------
D|-----1--------------3--1--3--1--------------1-----------------------1--1-----
A|--3-----3--1--------------------3--3-----3-----3--1-----------1--1--------3--
E|--------------1--3-----------------------------------1--3--------------------

Stave 6:

E|-----------------------------------------------------------
B|-----------------------------------------------------------
G|-----------------------------------------------------------
D|--------------------------1-----------------------1--1-----
A|-----------------------------3-----1--3-----------------3--
E|--1-----1--1--2--3-----3--------------------1--1-----------

Stave 7:

E|--------------------------------------|--------------------------------------
B|--------------------------------------|--------------------------------------
G|--------------------------------------|--------------------------------------
D|--------------------------------------|--------------------------------------
A|--3--3--3--3--3--3--3--3--3--2--1-----|--------------------3-----3--2--1-----
E|-----------------------------------3--|--1-----1--2--3--------3-----------3--

http://www.guitartabcreator.com
Guitar Tab Creator is intended to store guitar tab created through the tool. It currently does not support in-line text editing. Any text you place in here will be lost. If you need to comment on your tab, please use the "Tab Notes" section located below.