Sound will begin in 5 seconds

6/8 riff

Chords
01234567891011121314151617181920212223
E
B
G
D
A
E
B
0 1 2 3 4 5 6 7 8 9 10 11 12 13 14 15 16 17 18 19 20 21 22 23
(/) Slide Up  (\) Slide Down  (h) Hammer On  (p) Pull Off  (b) Bend (r) Release (v) Vibrato

Stave 1:

E|--------------------------------------------------------------------------
B|-----------------------------------------------------------------------4--
G|--------------------------------------------------------------------3-----
D|-----3-----1-----------5--4--3--1--------3-----1-----------3--4--5--------
A|--3-----3-----3--1-----------------1--3-----3-----3--1--------------------
E|--------------------3-----------------------------------3-----------------

Stave 2:

E|--------3-----------------------------------3--------------------6--5--3--
B|--------4-----------------------------------4--------------------8--6--4--
G|--5--3-----5--3-----------------------5--3-----5--3-----------------------
D|-----------------5--4--3-----3-----------------------5--4--3--------------
A|--------------------------6-----1--2--------------------------6-----------
E|--------------------------------------------------------------------------

Stave 3:

E|--------3-----------------------------------------------------------------
B|--------4--------------------------------------------------------4--4--4--
G|--5--3-----5--3--------------------------------------------------3--3--3--
D|-----------------5--4--3-----3--------1--------------------------1--1--1--
A|--------------------------6-----1--2-----3--1--3--1-----1-----------------
E|-----------------------------------------------------3-----3--1-----------

Stave 4:

E|--------------------------------------------------------------
B|-----------------------------6--6--6-----------------4--4-----
G|-----------------------------5--5--5--5--------3--3--3--3--5--
D|--1--------------------------3--3--3--5--------3--3--1--1--5--
A|-----3--1--3--1-----1-----------------3--------1--1--------3--
E|-----------------3-----3--1-----------------------------------

Stave 5:

E|-----------------------------------------------------
B|-----------------------------4--4-----------------4--
G|-----------------------------3--3-----5--3--5-----3--
D|--3-----3--3--4--5-----5--5--1--1-----5--3--5--3--1--
A|--3-----3--3--4--5-----5--5-----------3--1--3--3-----
E|--1-----1--1--2--3-----3--3--------------------1-----

Stave 6:

E|--------------------------------------|--------------------------------------------------------------------------
B|--------------------------------------|--------------------------------------------------------------------------
G|--5--5--5--5--5--5--5--5--5--4--3-----|--------------------------------------------------------5-----5--4--3-----
D|-----------------------------------5--|--3--3--3--3--3--3--3--3--3--3--3--4--5--5--5--5--5--5-----5-----------5--
A|--------------------------------------|--------------------------------------------------------------------------
E|--------------------------------------|--------------------------------------------------------------------------

http://www.guitartabcreator.com
Guitar Tab Creator is intended to store guitar tab created through the tool. It currently does not support in-line text editing. Any text you place in here will be lost. If you need to comment on your tab, please use the "Tab Notes" section located below.