Sound will begin in 5 seconds

The Wedge Solo

Chords
01234567891011121314151617181920212223
E
B
G
D
A
E
B
0 1 2 3 4 5 6 7 8 9 10 11 12 13 14 15 16 17 18 19 20 21 22 23
(/) Slide Up  (\) Slide Down  (h) Hammer On  (p) Pull Off  (b) Bend (r) Release (v) Vibrato

Stave 1:

E|--16\12\9b10-----------12p10-----12p10-----10--9------------------------------------------------10-----
B|--------------------------------------------------10------------------------------9--12----------------
G|-----------------9/11---------------------------------9-----7/9-------9--------9---------11---------9--
D|-----------------------------------------------------------------9\6-----------------------------------
A|-------------------------------------------------------------------------------------------------------
E|-------------------------------------------------------------------------------------------------------

Stave 2:

E|--9--9--7--9b11-----11b13--13r11-----14b16--16r14-----19--------21-----23--------4--
B|------------------------------------------------------------------------------------
G|------------------------------------------------------------------------------------
D|------------------------------------------------------------------------------------
A|------------------------------------------------------------------------------------
E|------------------------------------------------------------------------------------

Stave 3:

E|----------------------------
B|--9b10r9--7-----------------
G|-------------8-----9b10--9--
D|----------------------------
A|----------------------------
E|----------------------------

Stave 4:

E|--12--11----------------------------
B|----------12------------------------
G|--------------11\9--8---------------
D|-----------------------9--8--7\6/7--
A|------------------------------------
E|------------------------------------

Stave 5:

E|-------------------------------------
B|--------7----------------------------
G|-----9-----7h8-----------------------
D|--9-------------9-----7--9-----9/11--
A|-------------------------------------
E|-------------------------------------

Stave 6:

E|--9-----9-------------------6--6--9-------------------6-------------4--4--
B|-----------9b10r9--7-----------------9b10r9--7-----7-----7-------5-----5--
G|------------------------------------------------6-----------6\4--------4--
D|--------------------------------------------------------------------------
A|--------------------------------------------------------------------------
E|--------------------------------------------------------------------------

http://www.guitartabcreator.com
Guitar Tab Creator is intended to store guitar tab created through the tool. It currently does not support in-line text editing. Any text you place in here will be lost. If you need to comment on your tab, please use the "Tab Notes" section located below.