Toots and the Maytals - Monkey Man BASS TAB

Chords

01234567891011121314151617181920212223
E
B
G
D
A
E
B
0 1 2 3 4 5 6 7 8 9 10 11 12 13 14 15 16 17 18 19 20 21 22 23
(/) Slide Up  (\) Slide Down  (h) Hammer On  (p) Pull Off  (b) Bend (r) Release (v) Vibrato

Intro 1

G|--------------------------|-----------------|--------5--------7--|--
D|--5-----5-----5-----5-----|--5-----5-----5--|-----5--------7-----|--
A|-----5-----5-----5-----5--|-----5-----5-----|--3--------5--------|--
E|--------------------------|-----------------|--------------------|--

Intro 2

G|--------------------------|-----------------|--------5-----------7-----|--------|--
D|--5-----5-----5-----5-----|--5-----5-----5--|-----5-----5-----7-----7--|--------|--
A|-----5-----5-----5-----5--|-----5-----5-----|--3-----------5-----------|--------|--
E|--------------------------|-----------------|--------------------------|--3--3--|--

Verse

G|------------------------|-----------------------------------|--
D|-------2----------2-----|-----------0--2--0-----------2-----|--
A|----------5----------5--|--0--2--3-----------3--2--------5--|--
E|--0h3--------0h3--------|--------------------------3--------|--

Alternates

G|--------------------|-----------------------------------|--
D|-----2--0-----2--0--|-----------------------------2--0--|--
A|--------------------|--0--2--3--5--7--5--3--2-----------|--
E|--3--------3--------|--------------------------3--------|--

							http://www.guitartabcreator.com
Tab Notes
Toots and the Maytals D9 rear p/up (Jazz) Tone up, clear vintage sound
genre
Instruments
{"strings":[[[".",".",".",".",".",".",".",".","|",".",".",".",".",".","|",".",".",5,".",".",7,"|"],[5,".",5,".",5,".",5,".","|",5,".",5,".",5,"|",".",5,".",".",7,".","|"],[".",5,".",5,".",5,".",5,"|",".",5,".",5,".","|",3,".",".",5,".",".","|"],[".",".",".",".",".",".",".",".","|",".",".",".",".",".","|",".",".",".",".",".",".","|"]],[[".",".",".",".",".",".",".",".","|",".",".",".",".",".","|",".",".",5,".",".",".",7,".","|",".",".","|"],[5,".",5,".",5,".",5,".","|",5,".",5,".",5,"|",".",5,".",5,".",7,".",7,"|",".",".","|"],[".",5,".",5,".",5,".",5,"|",".",5,".",5,".","|",3,".",".",".",5,".",".",".","|",".",".","|"],[".",".",".",".",".",".",".",".","|",".",".",".",".",".","|",".",".",".",".",".",".",".",".","|",3,3,"|"]],[[".",".",".",".",".",".",".",".",".",".","|",".",".",".",".",".",".",".",".",".",".",".","|"],[".",".",".",2,".",".",".",".",2,".","|",".",".",".",0,2,0,".",".",".",2,".","|"],[".",".",".",".",5,".",".",".",".",5,"|",0,2,3,".",".",".",3,2,".",".",5,"|"],[0,"h",3,".",".",0,"h",3,".",".","|",".",".",".",".",".",".",".",".",3,".",".","|"]],[[".",".",".",".",".",".","|",".",".",".",".",".",".",".",".",".",".",".","|"],[".",2,0,".",2,0,"|",".",".",".",".",".",".",".",".",".",2,0,"|"],[".",".",".",".",".",".","|",0,2,3,5,7,5,3,2,".",".",".","|"],[3,".",".",3,".",".","|",".",".",".",".",".",".",".",".",3,".",".","|"]]],"numberofstrings":4,"notes":["G","D","A","E"],"capo":0,"stringnotes":["G2","D2","A2","E3"],"comments":["Intro 1","Intro 2","Verse","Alternates"],"timing":[["W","W","W","W","W","W","W","W",null,"W","W","W","W","W",null,"W","W","W","W","W","W"],["W","W","W","W","W","W","W","W",null,"W","W","W","W","W",null,"W","W","W","W","W","W","W","W",null,"W","W"],["W",null,"W","W","W","W",null,"W","W","W",null,"W","W","W","W","W","W","W","W","W","W","W"],["W","W","W","W","W","W","W","W",null,"W","W","W","W","W","W","W","W","W","W","W"]],"timingvisible":false,"tabcounter":19,"stave":3,"totalstaves":4,"instrument":"4bass","selectedtuning":"4bass","version":"13"}

Member for

8 months 3 weeks
Submitted by RichardA on Sun, 2020-09-20 02:09