Talking Heads - Psycho Killer BASS TAB

Chords

01234567891011121314151617181920212223
E
B
G
D
A
E
B
0 1 2 3 4 5 6 7 8 9 10 11 12 13 14 15 16 17 18 19 20 21 22 23
(/) Slide Up  (\) Slide Down  (h) Hammer On  (p) Pull Off  (b) Bend (r) Release (v) Vibrato

Groove 1:

G|--------------|-----------------|--
D|--------------|-----------------|--
A|--------------|-----------------|--
E|--5--5--5--5--|--5--5--5--0--3--|--

Groove 2:

G|--------------------|--------------------|--------------------|-----------------|--------------------|--
D|--3--------3--------|--5--------5--------|--------------------|-----------------|--3--------3--------|--
A|-----5--3-----5--3--|-----7--5-----7--5--|--------------------|-----------------|-----5--3-----5--3--|--
E|--------------------|--------------------|--5--5--3--5--5--3--|--5--5--3--5--5--|--------------------|--

Groove 2 (cont)

G|--------------------|--------------------|-----------------|--
D|--5--------5--------|--------------------|-----------------|--
A|-----7--5-----7--5--|--3--3--2--3--3--2--|--3--3--2--3--3--|--
E|--------------------|--------------------|-----------------|--

Groove 3: ~2.12 Bridge

G|--------------|--------------|--------------|--|--------------|--------------|--4-----------|--4-----------|--
D|--4-----------|--------------|--5--4--------|--|--4-----------|--4-----------|-----7--5--0--|-----7--5--0--|--
A|-----7--5--4--|-----------4--|--------7--5--|--|-----7--5--0--|-----7--5--0--|--------------|--------------|--
E|--------------|--7--5--7-----|--------------|--|--------------|--------------|--------------|--------------|--

Groove 4:

G|--------------|--------------|--------------------------|--------------------------|--------|--
D|-----7-----5--|-----7-----5--|--5-----7-----5-----7-----|--5-----7-----5-----7-----|--5-----|--
A|--0-----0-----|--0-----0-----|-----0-----0-----0-----0--|-----0-----0-----0-----0--|-----0--|--
E|--------------|--------------|--------------------------|--------------------------|--------|--

							http://www.guitartabcreator.com
Tab Notes

D4 rear p/u w pick

Stave 4 2.12 Bridge

genre
Instruments
{"title":"Talking Heads - Psycho Killer BASS TAB","strings":[[[".",".",".",".","|",".",".",".",".",".","|"],[".",".",".",".","|",".",".",".",".",".","|"],[".",".",".",".","|",".",".",".",".",".","|"],[5,5,5,5,"|",5,5,5,0,3,"|"]],[[".",".",".",".",".",".","|",".",".",".",".",".",".","|",".",".",".",".",".",".","|",".",".",".",".",".","|",".",".",".",".",".",".","|"],[3,".",".",3,".",".","|",5,".",".",5,".",".","|",".",".",".",".",".",".","|",".",".",".",".",".","|",3,".",".",3,".",".","|"],[".",5,3,".",5,3,"|",".",7,5,".",7,5,"|",".",".",".",".",".",".","|",".",".",".",".",".","|",".",5,3,".",5,3,"|"],[".",".",".",".",".",".","|",".",".",".",".",".",".","|",5,5,3,5,5,3,"|",5,5,3,5,5,"|",".",".",".",".",".",".","|"]],[[".",".",".",".",".",".","|",".",".",".",".",".",".","|",".",".",".",".",".","|"],[5,".",".",5,".",".","|",".",".",".",".",".",".","|",".",".",".",".",".","|"],[".",7,5,".",7,5,"|",3,3,2,3,3,2,"|",3,3,2,3,3,"|"],[".",".",".",".",".",".","|",".",".",".",".",".",".","|",".",".",".",".",".","|"]],[[".",".",".",".","|",".",".",".",".","|",".",".",".",".","|","|",".",".",".",".","|",".",".",".",".","|",4,".",".",".","|",4,".",".",".","|"],[4,".",".",".","|",".",".",".",".","|",5,4,".",".","|","|",4,".",".",".","|",4,".",".",".","|",".",7,5,0,"|",".",7,5,0,"|"],[".",7,5,4,"|",".",".",".",4,"|",".",".",7,5,"|","|",".",7,5,0,"|",".",7,5,0,"|",".",".",".",".","|",".",".",".",".","|"],[".",".",".",".","|",7,5,7,".","|",".",".",".",".","|","|",".",".",".",".","|",".",".",".",".","|",".",".",".",".","|",".",".",".",".","|"]],[[".",".",".",".","|",".",".",".",".","|",".",".",".",".",".",".",".",".","|",".",".",".",".",".",".",".",".","|",".",".","|"],[".",7,".",5,"|",".",7,".",5,"|",5,".",7,".",5,".",7,".","|",5,".",7,".",5,".",7,".","|",5,".","|"],[0,".",0,".","|",0,".",0,".","|",".",0,".",0,".",0,".",0,"|",".",0,".",0,".",0,".",0,"|",".",0,"|"],[".",".",".",".","|",".",".",".",".","|",".",".",".",".",".",".",".",".","|",".",".",".",".",".",".",".",".","|",".",".","|"]]],"numberofstrings":4,"notes":["G","D","A","E"],"capo":0,"stringnotes":["G2","D2","A1","E1"],"comments":["Groove 1:","Groove 2:","Groove 2 (cont)","Groove 3: ~2.12 Bridge","Groove 4:"],"timing":[["W","W","W","W",null,"W","W","W","W","W"],["W","W","W","W","W","W",null,"W","W","W","W","W","W",null,"W","W","W","W","W","W",null,"W","W","W","W","W",null,"W","W","W","W","W","W",null,"W","W","W"],["W","W","W","W","W","W",null,"W","W","W","W","W","W",null,"W","W","W","W","W"],["W","W","W","W",null,"W","W","W","W","W","W","W","W","W",null,null,"W","W","W","W","W","W","W","W","W",null,"W","W","W","W",null,"W","W","W","W"],["W","W","W","W",null,"W","W","W","W",null,"W","W","W","W","W","W","W","W",null,"W","W","W","W","W","W","W","W",null,"W","W"]],"timingvisible":false,"tabcounter":31,"stave":4,"totalstaves":5,"instrument":"4bass","selectedtuning":"4bass_standard","version":"13"}

Member for

11 months 1 week
Submitted by RichardA on Mon, 2020-02-03 17:18