James Brown - Night Train BASS TAB

Chords

01234567891011121314151617181920212223
E
B
G
D
A
E
B
0 1 2 3 4 5 6 7 8 9 10 11 12 13 14 15 16 17 18 19 20 21 22 23
(/) Slide Up  (\) Slide Down  (h) Hammer On  (p) Pull Off  (b) Bend (r) Release (v) Vibrato

I Groove

G|-----------------------------|--
D|-----6--------4--3-----------|--
A|--------6--------------6--3--|--
E|--4--------------------------|--

IV groove

G|-----6-----------------------|--
D|--------6-----4--3-----6--3--|--
A|--4--------------------------|--
E|-----------------------------|--

V groove

G|-----8--------6--5-----------|--
D|--------8--------------8--5--|--
A|--6--------------------------|--
E|-----------------------------|--

							http://www.guitartabcreator.com
Tab Notes

I   I   I   I

IV IV I I

V IV I V

Instruments
{"title":"James Brown - Night Train BASS TAB","strings":[[[".",".",".","_",".",".","_",".",".","|"],[".",6,".","_",4,3,"_",".",".","|"],[".",".",6,"_",".",".","_",6,3,"|"],[4,".",".","_",".",".","_",".",".","|"]],[[".",6,".","_",".",".","_",".",".","|"],[".",".",6,"_",4,3,"_",6,3,"|"],[4,".",".","_",".",".","_",".",".","|"],[".",".",".","_",".",".","_",".",".","|"]],[[".",8,".","_",6,5,"_",".",".","|"],[".",".",8,"_",".",".","_",8,5,"|"],[6,".",".","_",".",".","_",".",".","|"],[".",".",".","_",".",".","_",".",".","|"]]],"numberofstrings":4,"notes":["G","D","A","E"],"capo":0,"stringnotes":["G2","D2","A1","E1"],"comments":["I Groove","IV groove","V groove"],"timing":[["W","W","W",null,"W","W",null,"W","W",null,"W","W","W",null,null,"W","W",null,"W","W"],["W","W","W",null,"W","W",null,"W","W"],["W","W","W",null,"W","W",null,"W","W"]],"timingvisible":false,"tabcounter":10,"stave":2,"totalstaves":3,"instrument":"4bass","selectedtuning":"4bass_standard","version":"13"}

Member for

11 months 1 week
Submitted by RichardA on Thu, 2020-02-13 02:36