George Thorogood - Bad to the Bone BASS TAB

Chords

01234567891011121314151617181920212223
E
B
G
D
A
E
B
0 1 2 3 4 5 6 7 8 9 10 11 12 13 14 15 16 17 18 19 20 21 22 23
(/) Slide Up  (\) Slide Down  (h) Hammer On  (p) Pull Off  (b) Bend (r) Release (v) Vibrato

Main riff

G|------------------------------------------------------------
D|------------------------------------------------------------
A|-----------------------------1/3--3\1-----------------------
E|--3-----3--3-----3--3-----3------------3-----3--3-----3--3--

Octave 1 riff

G|--------------------------------3/5--5\3-----------------------
D|-----5-----5--5-----5--5-----5------------5-----5--5-----5--5--
A|---------------------------------------------------------------
E|---------------------------------------------------------------

Octave 2 riff

G|----------------------------15/17--17\15----------------------------
D|--17-----17--17-----17--17----------------17-----17--17-----17--17--
A|--------------------------------------------------------------------
E|--------------------------------------------------------------------

							http://www.guitartabcreator.com
genre
Instruments
{"strings":[[[".","_",".",".","_",".",".","_",".",".",".",".",".",".",".",".","_",".",".","_",".","."],[".","_",".",".","_",".",".","_",".",".",".",".",".",".",".",".","_",".",".","_",".","."],[".","_",".",".","_",".",".","_",".",1,"/",3,3,"\\",1,".","_",".",".","_",".","."],[3,"_",3,3,"_",3,3,"_",3,".",".",".",".",".",".",3,"_",3,3,"_",3,3]],[["_",".","_",".",".","_",".",".","_",".",3,"/",5,5,"\\",3,".","_",".",".","_",".","."],["_",5,"_",5,5,"_",5,5,"_",5,".",".",".",".",".",".",5,"_",5,5,"_",5,5],["_",".","_",".",".","_",".",".","_",".",".",".",".",".",".",".",".","_",".",".","_",".","."],["_",".","_",".",".","_",".",".","_",".",".",".",".",".",".",".",".","_",".",".","_",".","."]],[[".","_",".",".","_",".",".",15,"/",17,17,"\\",15,".","_",".",".","_",".","."],[17,"_",17,17,"_",17,17,".",".",".",".",".",".",17,"_",17,17,"_",17,17],[".","_",".",".","_",".",".",".",".",".",".",".",".",".","_",".",".","_",".","."],[".","_",".",".","_",".",".",".",".",".",".",".",".",".","_",".",".","_",".","."]]],"numberofstrings":4,"notes":["G","D","A","E"],"capo":0,"stringnotes":["G2","D2","A1","E1"],"comments":["Main riff","Octave 1 riff","Octave 2 riff"],"timing":[["W",null,"W","W",null,"W","W","W","W","W",null,"W","W",null,"W","W","W","W","W",null,"W","W"],[null,"W",null,"W","W",null,"W","W",null,"W","W",null,"W","W",null,"W","W",null,"W","W",null,"W","W"],["W",null,"W","W",null,"W","W","W",null,"W","W",null,"W","W",null,"W","W",null,"W","W"]],"timingvisible":false,"tabcounter":20,"stave":2,"totalstaves":3,"instrument":"4bass","selectedtuning":"4bass","version":"13"}

Member for

9 months 4 weeks
Submitted by RichardA on Wed, 2020-09-30 04:50