Bob Marley - Stir It Up BASS TAB

Chords

01234567891011121314151617181920212223
E
B
G
D
A
E
B
0 1 2 3 4 5 6 7 8 9 10 11 12 13 14 15 16 17 18 19 20 21 22 23
(/) Slide Up  (\) Slide Down  (h) Hammer On  (p) Pull Off  (b) Bend (r) Release (v) Vibrato

Groove 1:

G|-----------------------|-----------------------|--
D|-----------------------|-----4--7--------6--9--|--
A|-----4-----4--5--4--4--|--5--------5--7--------|--
E|--5--------------------|-----------------------|--

Groove 2:

G|--------------------|--------------------|--
D|--------------------|-----------4--------|--
A|-----------4--------|--5--7--7-----5-----|--
E|--5--7--7-----5-----|--------------------|--

							http://www.guitartabcreator.com
Tab Notes

Played by the mighty Aston Family Man Barrett on a Fender Precicion (of course)

genre
Instruments
{"title":"Bob Marley - Stir It Up BASS TAB","strings":[[[".",".","_",".",".",".",".","|",".",".",".",".",".",".",".","|"],[".",".","_",".",".",".",".","|",".",4,7,".",".",6,9,"|"],[".",4,"_",4,5,4,4,"|",5,".",".",5,7,".",".","|"],[5,".","_",".",".",".",".","|",".",".",".",".",".",".",".","|"]],[[".",".",".",".",".","_","|",".",".",".",".",".","_","|"],[".",".",".",".",".","_","|",".",".",".",4,".","_","|"],[".",".",".",4,".","_","|",5,7,7,".",5,"_","|"],[5,7,7,".",5,"_","|",".",".",".",".",".","_","|"]]],"numberofstrings":4,"notes":["G","D","A","E"],"capo":0,"stringnotes":["G2","D2","A1","E1"],"comments":["Groove 1:","Groove 2:"],"timing":[["W","W",null,"W","W","W","W",null,"W","W","W","W","W","W","W","W"],["W","W","W","W","W",null,null,"W","W","W","W","W"]],"timingvisible":false,"tabcounter":14,"stave":1,"totalstaves":2,"instrument":"4bass","selectedtuning":"4bass_standard","version":"13"}

Member for

11 months 1 week
Submitted by RichardA on Mon, 2020-02-03 17:54