Bob Marley - One Drop BASS TAB

Chords

01234567891011121314151617181920212223
E
B
G
D
A
E
B
0 1 2 3 4 5 6 7 8 9 10 11 12 13 14 15 16 17 18 19 20 21 22 23
(/) Slide Up  (\) Slide Down  (h) Hammer On  (p) Pull Off  (b) Bend (r) Release (v) Vibrato

Intro

G|-----------5--5-----|-----------5-----|--
D|-----5--7-----------|-----5--7--------|--
A|--------------------|--------------5--|--
E|--------------------|-----------------|--

Groove 1

G|--------------------|--------------------|--------------------7--|--------------------|--
D|-----------2--2--5--|-----------------2--|-----------------7-----|--5--------5--------|--
A|--3--3--3-----------|--0-----0--3--3-----|--5--5--5--8--8--------|--------5-----5--2--|--
E|--------------------|--------------------|-----------------------|--------------------|--

Variation 1

G|--------------------|--------------------|-----------------------|--------------------|--
D|-----------2--2--5--|-----------------2--|-----------------------|--5--------5--------|--
A|--3--3--3-----------|--0-----0--3--3-----|-----------------------|--------5-----5--2--|--
E|--------------------|--------------------|-----------------------|--------------------|--

Variation 2

G|--------------------|--------------------|--------------------|-----7-----------------|--
D|-----------2--2--5--|-----------------2--|-----------------7--|--5-----5--5-----------|--
A|--3--3--3-----------|--0-----0--3--3-----|--5--5--5--8--8-----|--------------7--7--5--|--
E|--------------------|--------------------|--------------------|-----------------------|--

							http://www.guitartabcreator.com
genre
Instruments
{"title":"Bob Marley - One Drop BASS TAB ","strings":[[["_",".",".",5,5,"_","|","_",".",".",5,".","|"],["_",5,7,".",".","_","|","_",5,7,".",".","|"],["_",".",".",".",".","_","|","_",".",".",".",5,"|"],["_",".",".",".",".","_","|","_",".",".",".",".","|"]],[[".",".",".",".",".",".","|",".","_",".",".",".",".","|",".",".",".",".",".",".",7,"|",".","_",".",".",".",".","|"],[".",".",".",2,2,5,"|",".","_",".",".",".",2,"|",".",".",".",".",".",7,".","|",5,"_",".",5,".",".","|"],[3,3,3,".",".",".","|",0,"_",0,3,3,".","|",5,5,5,8,8,".",".","|",".","_",5,".",5,2,"|"],[".",".",".",".",".",".","|",".","_",".",".",".",".","|",".",".",".",".",".",".",".","|",".","_",".",".",".",".","|"]],[[".",".",".",".",".",".","|",".","_",".",".",".",".","|","_","_","_","_","_","_","_","|",".","_",".",".",".",".","|"],[".",".",".",2,2,5,"|",".","_",".",".",".",2,"|","_","_","_","_","_","_","_","|",5,"_",".",5,".",".","|"],[3,3,3,".",".",".","|",0,"_",0,3,3,".","|","_","_","_","_","_","_","_","|",".","_",5,".",5,2,"|"],[".",".",".",".",".",".","|",".","_",".",".",".",".","|","_","_","_","_","_","_","_","|",".","_",".",".",".",".","|"]],[[".",".",".",".",".",".","|",".","_",".",".",".",".","|",".",".",".",".",".",".","|",".",7,".",".",".",".",".","|"],[".",".",".",2,2,5,"|",".","_",".",".",".",2,"|",".",".",".",".",".",7,"|",5,".",5,5,".",".",".","|"],[3,3,3,".",".",".","|",0,"_",0,3,3,".","|",5,5,5,8,8,".","|",".",".",".",".",7,7,5,"|"],[".",".",".",".",".",".","|",".","_",".",".",".",".","|",".",".",".",".",".",".","|",".",".",".",".",".",".",".","|"]]],"numberofstrings":4,"notes":["G","D","A","E"],"capo":0,"stringnotes":["G2","D2","A1","E1"],"comments":["Intro","Groove 1","Variation 1","Variation 2"],"timing":[[null,"W","W","W","W",null,null,"W","W","W","W","W"],["W","W","W","W","W","W",null,"W",null,"W","W","W","W",null,"W","W","W","W","W","W","W",null,"W",null,"W","W","W","W"],["W","W","W","W","W","W",null,"W",null,"W","W","W","W",null,null,null,null,null,null,null,null,null,"W",null,"W","W","W","W"],["W","W","W","W","W","W",null,"W",null,"W","W","W","W",null,"W","W","W","W","W","W",null,"W","W","W","W","W","W","W"]],"timingvisible":false,"tabcounter":29,"stave":3,"totalstaves":4,"instrument":"4bass","selectedtuning":"4bass_standard","version":"13"}

Member for

11 months 1 week
Submitted by RichardA on Mon, 2020-02-03 18:02