Sound will begin in 5 seconds

Ocean Intro-John Butler

01234567891011121314151617181920212223
E
B
G
D
A
E
B
0 1 2 3 4 5 6 7 8 9 10 11 12 13 14 15 16 17 18 19 20 21 22 23
Song Science #1: How Pros Use 6 Chords to Write Hit Songs
(/) Slide Up  (\) Slide Down  (h) Hammer On  (p) Pull Off  (b) Bend (r) Release (v) Vibrato

Stave 1:

E|--3p0--0---------------------------------------------------------------------------
B|----------4p0--2--2h4p2p0--------0-------------------------------------------------
G|---------------------------0--4-----4\2p0------------------------------------------
D|-------------------------------------------0h2p0h2/4\2/4-----4\2p0h2p0h2--2--------
A|-----------------------------------------------------------------------------------
E|----------------------------------------------------------0------------------0--0--

Stave 2:

E|-----------------------------------------------------------------------------------------
B|-----------------------------------------------------------------------------------------
G|---------------------------------------------------------------------------------0-------
D|--2--------2--------2--------2--------2---------------0h2p0--0--4--4/5\4p0--2/4-----4\2--
A|-----------------------------------------------0h2h4-------------------------------------
E|-----0--0-----0--0-----0--0-----0--0-----0--0--------------------------------------------

Stave 3:

E|-----------------------------------------------------------------------------------
B|-----------------------------------------------------------------------------------
G|-----------------------------------------------------------------------------------
D|--2p0h2--2h4p2p0---------0--------0--------0--------0--------0---------0h4p0--0h5--
A|------------------0h2/5-----5--5-----5--5-----5--5-----5--5-----0h4h5--------------
E|-----------------------------------------------------------------------------------

Stave 4:

E|---------------------8--------10---------12---------12---------
B|----------0----------------------------------------------------
G|--0----------0--5/9-----9/10------10/12------12---------12-----
D|-----5/9----------------------------------------------------0--
A|---------------------------------------------------------------
E|-------------------------------------------------0-------------

http://www.guitartabcreator.com
Guitar Tab Creator is intended to store guitar tab created through the tool. It currently does not support in-line text editing. Any text you place in here will be lost. If you need to comment on your tab, please use the "Tab Notes" section located below.