Sound will begin in 5 seconds

bridge tera echo delay

01234567891011121314151617181920212223
E
B
G
D
A
E
B
0 1 2 3 4 5 6 7 8 9 10 11 12 13 14 15 16 17 18 19 20 21 22 23
Song Science #1: How Pros Use 6 Chords to Write Hit Songs
(/) Slide Up  (\) Slide Down  (h) Hammer On  (p) Pull Off  (b) Bend (r) Release (v) Vibrato

Stave 1:

E|--------------------------------------------------------------------------------------------------
B|--------------------------------------------------------------------------------------------------
G|--16--16--16--16--16--16--16--16--16--16--16--16--------------------------------------------------
D|--------------------------------------------------19--19--19--19--19--19--17--17--17--17--19--19--
A|--------------------------------------------------------------------------------------------------
E|--------------------------------------------------------------------------------------------------

Stave 2:

E|-----------------------------------------------------------------------------------------------------------------------------------------
B|-----------------------------------------------------------------------------------------------------------------------------------------
G|--16--16--16--16--16--16--16--16--16--16--16--16--18/19------------------------------------------------------------------19--19--19--21--
D|---------------------------------------------------------17--17--17--17--17--17--14--14--14--14--14--14--19--19--19--19------------------
A|-----------------------------------------------------------------------------------------------------------------------------------------
E|-----------------------------------------------------------------------------------------------------------------------------------------

Stave 3:

E|---------------------------------------------------------------------------------------------------------------------------
B|---------------------------------------------------------------------------------------------------------------------------
G|--21--19--16--19--16------16-----------------------------------------------------------------------------------------------
D|----------------------19------19--17--14--14/17--17--17\14--14--14/17--17--17\14--14--14/17--17--17\14--14--14/17--17------
A|-----------------------------------------------------------------------------------------------------------------------19--
E|---------------------------------------------------------------------------------------------------------------------------

http://www.guitartabcreator.com
Guitar Tab Creator is intended to store guitar tab created through the tool. It currently does not support in-line text editing. Any text you place in here will be lost. If you need to comment on your tab, please use the "Tab Notes" section located below.