Song 2 Bass Tab

Chords

01234567891011121314151617181920212223
E
B
G
D
A
E
B
0 1 2 3 4 5 6 7 8 9 10 11 12 13 14 15 16 17 18 19 20 21 22 23
(/) Slide Up  (\) Slide Down  (h) Hammer On  (p) Pull Off  (b) Bend (r) Release (v) Vibrato

Stave 1:

G|--------------------------------------------------------------
D|--------------------------------------------------------------
A|---------2-2-2-2---------2-2-2-2---------9-11-9---------6-7-6-
E|-0-0-0-0---------0-0-0-0---------7-7-7-7--------4-4-4-4-------

Stave 2:

G|-----------------------------------------------------
D|-----------------------------------------------------
A|---------2-2-2-2-------2-2-2-2-2-2-2-2-2-2-2-2-2-2-2-
E|-0-0-0-0---------0-0-0-------------------------------

Stave 3:

G|------------------------------------------------------------------------13----------13--------------------------
D|------------------------------------------------------------------13----------13--------------------------------
A|-2-2-2-2-2-2-2-2-2-2-2-2-------------2-2-2-2-2-2-2-11-11-11-11-11----11----11----11----11-6-6-6-6-6-7-7-7-9-7-6-
E|-------------------------0-0-0-0-0-0----------------------------------------------------------------------------

Stave 4:

G|-------------------------------------------------
D|-------------------------------------------------
A|---------2-2-2-2---------2-2-2-2-2-2-2-2h4-------
E|-0-0-0-0---------0-0-0-0-------------------2-2-2-

Stave 5:

G|---------------------8-----3---------------------------8-----3---
D|-----------------------9-----4---------------------------9-----4-
A|-7-7-7-2-2-2-7-7-7-------------7-7-7-7h9-2-2-2-7-7-7-------------
E|-------------------7-----2---------------------------7-----2-----

Stave 6:

G|-------------
D|-------------
A|-14-13-------
E|-------16-14-

Stave 7:

G|-16-16h18-15-13----------
D|----------------13-14-16-
A|-------------------------
E|-------------------------

Stave 8:

G|-------------------------
D|-------------------------
A|-------------------------
E|-------------------------

Stave 9:

G|-----------------------------------------------------------------
D|-----------------------------------------------------------------
A|-2-2-2-2-2-2-2-2-------2-2-2-2-2---------------------------------
E|-----------------0-0-0-----------4-4-4-4-4-4-4-4-2-2-2-2-2-2-2-2-

Stave 10:

G|-------------------------------------------------------------------
D|-------------------------------------------------------------------
A|-2-2-2-2-2-2-2-2-------2-2-2-2-2-----------------------------------
E|-----------------0-0-0-----------4-4-4-4-4-4-4-4-2-2-2-2-2-2-2-2-0-

							http://www.guitartabcreator.com
Tab Notes
Structure Stave 1 x3 Stave 2 x1 Stave 3 x 3 Stave 1 x 3 Stave 2 x 1 Stave 5 x 2 Stave 1 x 3 Stave 4 x 1 Stave 8 x 1 Stave 6 x 1 Stave 7 x 1 Stave 9 x 3 Stave 10 x 1
Instruments
{"strings":[[[".",".",".",".",".",".",".",".",".",".",".",".",".",".",".",".",".",".",".",".",".",".",".",".",".",".",".",".",".","."],[".",".",".",".",".",".",".",".",".",".",".",".",".",".",".",".",".",".",".",".",".",".",".",".",".",".",".",".",".","."],[".",".",".",".",2,2,2,2,".",".",".",".",2,2,2,2,".",".",".",".",9,11,9,".",".",".",".",6,7,6],[0,0,0,0,".",".",".",".",0,0,0,0,".",".",".",".",7,7,7,7,".",".",".",4,4,4,4,".",".","."]],[[".",".",".",".",".",".",".",".",".",".",".",".",".",".",".",".",".",".",".",".",".",".",".",".",".","."],[".",".",".",".",".",".",".",".",".",".",".",".",".",".",".",".",".",".",".",".",".",".",".",".",".","."],[".",".",".",".",2,2,2,2,".",".",".",2,2,2,2,2,2,2,2,2,2,2,2,2,2,2],[0,0,0,0,".",".",".",".",0,0,0,".",".",".",".",".",".",".",".",".",".",".",".",".",".","."]],[[".",".",".",".",".",".",".",".",".",".",".",".",".",".",".",".",".",".",".",".",".",".",".",".",".",".",".",".",".",".",".",".",13,".",".",".",13,".",".",".",".",".",".",".",".",".",".",".","."],[".",".",".",".",".",".",".",".",".",".",".",".",".",".",".",".",".",".",".",".",".",".",".",".",".",".",".",".",".",".",13,".",".",".",13,".",".",".",".",".",".",".",".",".",".",".",".",".","."],[2,2,2,2,2,2,2,2,2,2,2,2,".",".",".",".",".",".",2,2,2,2,2,2,2,11,11,11,11,11,".",11,".",11,".",11,".",11,6,6,6,6,6,7,7,7,9,7,6],[".",".",".",".",".",".",".",".",".",".",".",".",0,0,0,0,0,0,".",".",".",".",".",".",".",".",".",".",".",".",".",".",".",".",".",".",".",".",".",".",".",".",".",".",".",".",".",".","."]],[[".",".",".",".",".",".",".",".",".",".",".",".",".",".",".",".",".",".",".",".",".",".",".",".","."],[".",".",".",".",".",".",".",".",".",".",".",".",".",".",".",".",".",".",".",".",".",".",".",".","."],[".",".",".",".",2,2,2,2,".",".",".",".",2,2,2,2,2,2,2,2,"h",4,".",".","."],[0,0,0,0,".",".",".",".",0,0,0,0,".",".",".",".",".",".",".",".",".",".",2,2,2]],[[".",".",".",".",".",".",".",".",".",".",8,".",".",3,".",".",".",".",".",".",".",".",".",".",".",".",".",".",8,".",".",3,"."],[".",".",".",".",".",".",".",".",".",".",".",9,".",".",4,".",".",".",".",".",".",".",".",".",".",".",".",".",".",9,".",".",4],[7,7,7,2,2,2,7,7,7,".",".",".",".",".",".",7,7,7,7,"h",9,2,2,2,7,7,7,".",".",".",".",".","."],[".",".",".",".",".",".",".",".",".",7,".",".",2,".",".",".",".",".",".",".",".",".",".",".",".",".",".",7,".",".",2,".","."]],[[".",".",".","."],[".",".",".","."],[14,13,".","."],[".",".",16,14]],[[16,16,"h",18,15,13,".",".","."],[".",".",".",".",".",".",13,14,16],[".",".",".",".",".",".",".",".","."],[".",".",".",".",".",".",".",".","."]],[["_","_","_","_","_","_","_","_"],["_","_","_","_","_","_","_","_"],["_","_","_","_","_","_","_","_"],["_","_","_","_","_","_","_","_"]],[[".",".",".",".",".",".",".",".",".",".",".",".",".",".",".",".",".",".",".",".",".",".",".",".",".",".",".",".",".",".",".","."],[".",".",".",".",".",".",".",".",".",".",".",".",".",".",".",".",".",".",".",".",".",".",".",".",".",".",".",".",".",".",".","."],[2,2,2,2,2,2,2,2,".",".",".",2,2,2,2,2,".",".",".",".",".",".",".",".",".",".",".",".",".",".",".","."],[".",".",".",".",".",".",".",".",0,0,0,".",".",".",".",".",4,4,4,4,4,4,4,4,2,2,2,2,2,2,2,2]],[[".",".",".",".",".",".",".",".",".",".",".",".",".",".",".",".",".",".",".",".",".",".",".",".",".",".",".",".",".",".",".",".","."],[".",".",".",".",".",".",".",".",".",".",".",".",".",".",".",".",".",".",".",".",".",".",".",".",".",".",".",".",".",".",".",".","."],[2,2,2,2,2,2,2,2,".",".",".",2,2,2,2,2,".",".",".",".",".",".",".",".",".",".",".",".",".",".",".",".","."],[".",".",".",".",".",".",".",".",0,0,0,".",".",".",".",".",4,4,4,4,4,4,4,4,2,2,2,2,2,2,2,2,0]]],"numberofstrings":4,"notes":["G","D","A","E"],"capo":0,"stringnotes":["G2","D2","A1","E1"],"comments":["Stave 1:","Stave 2:","Stave 3:","Stave 4:","Stave 5:","Stave 6:","Stave 7:","Stave 8:","Stave 9:","Stave 10:"],"timing":[["W","W","W","W","W","W","W","W","W","W","W","W","W","W","W","W","W","W","W","W","W","W","W","W","W","W","W","W","W","W"],["W","W","W","W","W","W","W","W","W","W","W","W","W","W","W","W","W","W","W","W","W","W","W","W","W","W"],["W","W","W","W","W","W","W","W","W","W","W","W","W","W","W","W","W","W","W","W","W","W","W","W","W","W","W","W","W","W","W","W","W","W","W","W","W","W","W","W","W","W","W","W","W","W","W","W","W"],["W","W","W","W","W","W","W","W","W","W","W","W","W","W","W","W","W","W","W","W","W","W","W","W","W"],["W","W","W","W","W","W","W","W","W","W","W","W","W","W","W","W","W","W","W",null,"W","W","W","W","W","W","W","W","W","W","W","W","W"],["W","W","W","W"],["W","W",null,"W","W","W","W","W","W"],[],["W","W","W","W","W","W","W","W","W","W","W","W","W","W","W","W","W","W","W","W","W","W","W","W","W","W","W","W","W","W","W","W"],["W","W","W","W","W","W","W","W","W","W","W","W","W","W","W","W","W","W","W","W","W","W","W","W","W","W","W","W","W","W","W","W","W"]],"timingvisible":false,"tabcounter":33,"stave":9,"totalstaves":10,"instrument":"4bass","selectedtuning":"4bass","version":"13"}

Member for

1 month 2 weeks
Submitted by rhysking on Sat, 2020-05-23 09:04