Rhys's All Hype No Heart bass tab

01234567891011121314151617181920212223
E
B
G
D
A
E
B
0 1 2 3 4 5 6 7 8 9 10 11 12 13 14 15 16 17 18 19 20 21 22 23
(/) Slide Up  (\) Slide Down  (h) Hammer On  (p) Pull Off  (b) Bend (r) Release (v) Vibrato

Stave 1:

G|---4-5------------4---
D|-5--------------5-----
A|--------------------3-
E|----------------------

Stave 2:

G|---------------------------------------------------------------------------------
D|---------------------------------------------------------------------------------
A|---------------------7-7-7-7-7-7-7-7-7-7---------------------7-7-7-7-7-3-3-3-3-3-
E|-3-3-3-3-3-2-3-3-3-3---------------------2-3-3-3-3-2-3-3-3-3---------------------

Stave 3:

G|---------------------------------------------------------
D|-----------------------------------9---9---------7---7---
A|-----------------------------7-7-7---7---7-5-5-5---5---5-
E|-3-3-3-3-3-3-3-2-2-2-3-3-3-3-----------------------------

Stave 4:

G|-------------------------------------------------------
D|-----------------------------5-4-5-7-5-4-7-7-7-9-7-9-7-
A|-------------------------------------------------------
E|-2-2-2-3-3-3-3-2-2-2-3-3-3-3---------------------------

Stave 5:

G|-----------------------------4-5-4-------------------------------------------
D|-5-5-5-4h5-5-5-4h5-5-5-4-5-7-------7-5---------------------------------------
A|---------------------------------------7-7-7-0-7-0-7-7-5-5-5-4h5-5-4h5-5-4h5-
E|-----------------------------------------------------------------------------

Stave 6:

G|------------------------------------------------------------------
D|------------------------------------------------------------------
A|------------------------------------------------------------------
E|-0----------2----------3-3-3-3-3-3-3-3-2h3----3-3-3-3-3-3-3-3-2h3-

Stave 7:

G|------12-11-12-14-12-11--------------------------------------------------------
D|------------------------12-----------------------------------------------------
A|-------------------------------------------------------------------------------
E|-0----------------------------------3-3-3-3-3-3-3-3-2h3----3-3-3-3-3-3-3-3-2h3-

Stave 8:

G|---------------------------------------------------------------------------------
D|---------------9---9---------7---7-------------------------------5-4-5-7-5-4-7-7-
A|---------7-7-7---7---7-5-5-5---5---5---------------------------------------------
E|-3-----------------------------------2-2-2-3-3-3-3-2-2-2-3-3-3-3-----------------

							http://www.guitartabcreator.com
Chords

Tab Notes
Stave 1 x 1 Stave 2 x 2 and end on a G Stave 3 and 4 are the two part of the alternating verse riff Stave 3/4 x 4 Stave 5 x 2 Stave 3/4 x 4 Stave 5 x 2 Stave 6 x 1 Stave 7 x 1 Stave 6 x 1 Stave 8 x 1
Instruments
{"strings":[[[".",4,5,"_","_","_",".",4,"."],[5,".",".","_","_","_",5,".","."],[".",".",".","_","_","_",".",".",3],[".",".",".","_","_","_",".",".","."]],[[".",".",".",".",".",".",".",".",".",".",".",".",".",".",".",".",".",".",".",".",".",".",".",".",".",".",".",".",".",".",".",".",".",".",".",".",".",".",".","."],[".",".",".",".",".",".",".",".",".",".",".",".",".",".",".",".",".",".",".",".",".",".",".",".",".",".",".",".",".",".",".",".",".",".",".",".",".",".",".","."],[".",".",".",".",".",".",".",".",".",".",7,7,7,7,7,7,7,7,7,7,".",".",".",".",".",".",".",".",".",".",7,7,7,7,7,3,3,3,3,3],[3,3,3,3,3,2,3,3,3,3,".",".",".",".",".",".",".",".",".",".",2,3,3,3,3,2,3,3,3,3,".",".",".",".",".",".",".",".",".","."]],[[".",".",".",".",".",".",".",".",".",".",".",".",".",".",".",".",".",".",".",".",".",".",".",".",".",".",".","."],[".",".",".",".",".",".",".",".",".",".",".",".",".",".",".",".",".",9,".",9,".",".",".",".",7,".",7,"."],[".",".",".",".",".",".",".",".",".",".",".",".",".",".",7,7,7,".",7,".",7,5,5,5,".",5,".",5],[3,3,3,3,3,3,3,2,2,2,3,3,3,3,".",".",".",".",".",".",".",".",".",".",".",".",".","."]],[[".",".",".",".",".",".",".",".",".",".",".",".",".",".",".",".",".",".",".",".",".",".",".",".",".",".","."],[".",".",".",".",".",".",".",".",".",".",".",".",".",".",5,4,5,7,5,4,7,7,7,9,7,9,7],[".",".",".",".",".",".",".",".",".",".",".",".",".",".",".",".",".",".",".",".",".",".",".",".",".",".","."],[2,2,2,3,3,3,3,2,2,2,3,3,3,3,".",".",".",".",".",".",".",".",".",".",".",".","."]],[[".",".",".",".",".",".",".",".",".",".",".",".",".",".",".",".",4,5,4,".",".",".",".",".",".",".",".",".",".",".",".",".",".",".",".",".",".",".",".",".",".",".","."],[5,5,5,4,"h",5,5,5,4,"h",5,5,5,4,5,7,".",".",".",7,5,".",".",".",".",".",".",".",".",".",".",".",".",".",".",".",".",".",".",".",".",".","."],[".",".",".",".",".",".",".",".",".",".",".",".",".",".",".",".",".",".",".",".",".",7,7,7,0,7,0,7,7,5,5,5,4,"h",5,5,4,"h",5,5,4,"h",5],[".",".",".",".",".",".",".",".",".",".",".",".",".",".",".",".",".",".",".",".",".",".",".",".",".",".",".",".",".",".",".",".",".",".",".",".",".",".",".",".",".",".","."]],[[".","_","_","_",".","_","_","_",".",".",".",".",".",".",".",".",".",".",".","_",".",".",".",".",".",".",".",".",".",".","."],[".","_","_","_",".","_","_","_",".",".",".",".",".",".",".",".",".",".",".","_",".",".",".",".",".",".",".",".",".",".","."],[".","_","_","_",".","_","_","_",".",".",".",".",".",".",".",".",".",".",".","_",".",".",".",".",".",".",".",".",".",".","."],[0,"_","_","_",2,"_","_","_",3,3,3,3,3,3,3,3,2,"h",3,"_",3,3,3,3,3,3,3,3,2,"h",3]],[[".","_",12,11,12,14,12,11,".","_","_","_",".",".",".",".",".",".",".",".",".",".",".","_",".",".",".",".",".",".",".",".",".",".","."],[".","_",".",".",".",".",".",".",12,"_","_","_",".",".",".",".",".",".",".",".",".",".",".","_",".",".",".",".",".",".",".",".",".",".","."],[".","_",".",".",".",".",".",".",".","_","_","_",".",".",".",".",".",".",".",".",".",".",".","_",".",".",".",".",".",".",".",".",".",".","."],[0,"_",".",".",".",".",".",".",".","_","_","_",3,3,3,3,3,3,3,3,2,"h",3,"_",3,3,3,3,3,3,3,3,2,"h",3]],[[".","_","_",".",".",".",".",".",".",".",".",".",".",".",".",".",".",".",".",".",".",".",".",".",".",".",".",".",".",".",".",".",".",".",".",".",".",".","."],[".","_","_",".",".",".",9,".",9,".",".",".",".",7,".",7,".",".",".",".",".",".",".",".",".",".",".",".",".",".",".",5,4,5,7,5,4,7,7],[".","_","_",7,7,7,".",7,".",7,5,5,5,".",5,".",5,".",".",".",".",".",".",".",".",".",".",".",".",".",".",".",".",".",".",".",".",".","."],[3,"_","_",".",".",".",".",".",".",".",".",".",".",".",".",".",".",2,2,2,3,3,3,3,2,2,2,3,3,3,3,".",".",".",".",".",".",".","."]]],"numberofstrings":4,"notes":["G","D","A","E"],"capo":0,"stringnotes":["G2","D2","A1","E1"],"comments":["Stave 1:","Stave 2:","Stave 3:","Stave 4:","Stave 5:","Stave 6:","Stave 7:","Stave 8:"],"timing":[["W","W","W",null,null,null,"W","W","W"],["W","W","W","W","W","W","W","W","W","W","W","W","W","W","W","W","W","W","W","W","W","W","W","W","W","W","W","W","W","W","W","W","W","W","W","W","W","W","W","W"],["W","W","W","W","W","W","W","W","W","W","W","W","W","W","W","W","W","W","W","W","W","W","W","W","W","W","W","W"],["W","W","W","W","W","W","W","W","W","W","W","W","W","W","W","W","W","W","W","W","W","W","W","W","W","W","W"],["W","W","W","W",null,"W","W","W","W",null,"W","W","W","W","W","W","W","W","W","W","W","W","W","W","W","W","W","W","W","W","W","W","W",null,"W","W","W",null,"W","W","W",null,"W","W","W"],["W",null,null,null,"W",null,null,null,"W","W","W","W","W","W","W","W","W","W","W","W","W","W","W","W","W","W","W","W","W",null,"W"],["W",null,"W","W","W","W","W","W","W",null,null,null,"W","W","W","W","W","W","W","W","W",null,"W",null,"W","W","W","W","W","W","W","W","W",null,"W"],["W",null,null,"W","W","W","W","W","W","W","W","W","W","W","W","W","W","W","W","W","W","W","W","W","W","W","W","W","W","W","W","W","W","W","W","W","W","W","W"]],"timingvisible":false,"tabcounter":39,"stave":7,"totalstaves":8,"instrument":"4bass","selectedtuning":"4bass","version":"13"}

Member for

8 months
Submitted by rhysking on Wed, 2020-12-02 06:35