Sound will begin in 5 seconds

Staying Alice

Chords
01234567891011121314151617181920212223
E
B
G
D
A
E
B
0 1 2 3 4 5 6 7 8 9 10 11 12 13 14 15 16 17 18 19 20 21 22 23
Song Science #1: How Pros Use 6 Chords to Write Hit Songs
(/) Slide Up  (\) Slide Down  (h) Hammer On  (p) Pull Off  (b) Bend (r) Release (v) Vibrato

Stave 1:

E|--------------------------------------------------------------------------
B|--------------------------------------------------------------------------
G|--------------------------------------------------------------------------
D|--------4--------4--------4--------4--------4--------4--------4--------4--
A|--------------------------------------------------------------------------
E|--2--2-----2--2-----2--2-----2--2-----2--2-----2--2-----2--2-----2--2-----

Stave 2:

E|--------------------------------------------------------------------------
B|--------------------------------------------------------------------------
G|--------------------------------------------------------------------------
D|--------4--------4--------4--------4--------4--------4--------4--------4--
A|--2--2-----2--2-----2--2-----2--2-----2--2-----2--2-----2--2-----2--2-----
E|--------------------------------------------------------------------------

Stave 3:

E|----------------------------------------------------------------------------------------------------
B|--9--10---------9--10---------9--10---------9--10---------9--10---------9--10---------9--10---------
G|---------11--9---------11--9---------11--9---------11--9---------11--9---------11--9---------11--9--
D|----------------------------------------------------------------------------------------------------
A|----------------------------------------------------------------------------------------------------
E|----------------------------------------------------------------------------------------------------

Stave 4:

E|----------------------------------------------------------------------------------------------------
B|--9--10---------9--10---------9--10---------9--10---------9--10---------9--10---------9--10---------
G|---------11--9---------11--9---------11--9---------11--9---------11--9---------11--9---------11--9--
D|----------------------------------------------------------------------------------------------------
A|----------------------------------------------------------------------------------------------------
E|----------------------------------------------------------------------------------------------------

Stave 5:

E|-----14--14--------14--14--------14--14--------14--14--
B|-----14--14--------14--14--------14--14--------14--14--
G|-----14--14--------14--14--------14--14--------14--14--
D|-------------------------------------------------------
A|-------------------------------------------------------
E|-------------------------------------------------------

Stave 6:

E|-----14--14--------14--14--------14--14--------14--14--
B|-----14--14--------14--14--------14--14--------14--14--
G|-----14--14--------14--14--------14--14--------14--14--
D|-------------------------------------------------------
A|-------------------------------------------------------
E|-------------------------------------------------------

Stave 7:

E|--------------------------------------------
B|--------------------------------------------
G|-------2------------------------------------
D|--2h4-----4--2-------2-------2-----------2--
A|----------------2h4-----2h4-----4--2--4-----
E|--------------------------------------------

Stave 8:

E|--------------------------------------------
B|--------------------------------------------
G|-------2---------------------------------2--
D|--2h4-----4--2-------2-------2-----2--4-----
A|----------------2h4-----2h4-----4-----------
E|--------------------------------------------

Stave 9:

E|-----------------------------------------------------------------------
B|-----------------------------2--------2\4--4--2\4--4--2\4--4--2--5--4--
G|--2\4--4--2\4--4--2\4--4--2-----4--4--2-4--4--2-4--4--2-4--4--2--6--4--
D|-----------------------------------------------------------------------
A|-----------------------------------------------------------------------
E|-----------------------------------------------------------------------

http://www.guitartabcreator.com
Guitar Tab Creator is intended to store guitar tab created through the tool. It currently does not support in-line text editing. Any text you place in here will be lost. If you need to comment on your tab, please use the "Tab Notes" section located below.