Stray cat

Chords

01234567891011121314151617181920212223
E
B
G
D
A
E
B
0 1 2 3 4 5 6 7 8 9 10 11 12 13 14 15 16 17 18 19 20 21 22 23
(/) Slide Up  (\) Slide Down  (h) Hammer On  (p) Pull Off  (b) Bend (r) Release (v) Vibrato

Stave 1:

E|-----0-----0-----0-----0--|--------0-----0-----0-----------------0-----0-----0----------------------------|--
B|--------------------------|-----------------------3--1--------------------------3--1-----------1--3--3/5--|--
G|--2-----------2-----------|--0--2-----------2-----------2--0--2-----------2-----------2--0--2-------------|--
D|--------2-----------2-----|-----------2-----------------------------2-----------2-------------------------|--
A|--------------------------|-----0-----------0-----------------0-----------0-----------------0-------------|--
E|--------------------------|-----------0-----------0-----------------0-----------0--------------------0----|--

Stave 2:

E|--------0-----------------0--------------------0-----------------0----------------------------
B|-----------1-----3-----------1--3--1--------------1-----3-----------1--3--1-----------1--3/5--
G|--0--2--------------2--2--------------2--0--2--------------2--2--------------2--0--2----------
D|--------------2-----------------2--------------------2-----------------2----------------------
A|-----0-----------------0--------------------0-----------------0--------------------0----------
E|--------------0-----------------0--------------------0-----------------0-----------------0----

							http://www.guitartabcreator.com
Tab Notes
Code geass
Instruments
{"strings":[[[".",0,".",0,".",0,".",0,"|",".",".",0,".",0,".",0,".",".",".",".",".",0,".",0,".",0,".",".",".",".",".",".",".",".",".",".","|"],[".",".",".",".",".",".",".",".","|",".",".",".",".",".",".",".",3,1,".",".",".",".",".",".",".",".",3,1,".",".",".",1,3,3,"/",5,"|"],[2,".",".",".",2,".",".",".","|",0,2,".",".",".",2,".",".",".",2,0,2,".",".",".",2,".",".",".",2,0,2,".",".",".",".",".","|"],[".",".",2,".",".",".",2,".","|",".",".",".",2,".",".",".",".",".",".",".",".",".",2,".",".",".",2,".",".",".",".",".",".",".",".",".","|"],[".",".",".",".",".",".",".",".","|",".",0,".",".",".",0,".",".",".",".",".",0,".",".",".",0,".",".",".",".",".",0,".",".",".",".",".","|"],[".",".",".",".",".",".",".",".","|",".",".",".",0,".",".",".",0,".",".",".",".",".",0,".",".",".",0,".",".",".",".",".",".",0,".",".","|"]],[[".",".",0,".",".",".",".",".",0,".",".",".",".",".",".",0,".",".",".",".",".",0,".",".",".",".",".",".",".",".",".","."],[".",".",".",1,".",3,".",".",".",1,3,1,".",".",".",".",1,".",3,".",".",".",1,3,1,".",".",".",1,3,"/",5],[0,2,".",".",".",".",2,2,".",".",".",".",2,0,2,".",".",".",".",2,2,".",".",".",".",2,0,2,".",".",".","."],[".",".",".",".",2,".",".",".",".",".",2,".",".",".",".",".",".",2,".",".",".",".",".",2,".",".",".",".",".",".",".","."],[".",0,".",".",".",".",".",0,".",".",".",".",".",".",0,".",".",".",".",".",0,".",".",".",".",".",".",0,".",".",".","."],[".",".",".",".",0,".",".",".",".",".",0,".",".",".",".",".",".",0,".",".",".",".",".",0,".",".",".",".",".",0,".","."]]],"numberofstrings":6,"notes":["E","B","G","D","A","E","B"],"capo":0,"stringnotes":["E4","B3","G3","D3","A2","E2"],"comments":["Stave 1:","Stave 2:"],"timing":[["W","W","W","W","W","W","W","W","W","W","W","W","W","W","W","W","W","W","W","W","W","W","W","W","W","W","W","W","W","W","W","W","W","W",null,"W"],["W","W","W","W","W","W","W","W","W","W","W","W","W","W","W","W","W","W","W","W","W","W","W","W","W","W","W","W","W","W",null,"W"]],"timingvisible":false,"tabcounter":32,"stave":1,"totalstaves":2,"instrument":"6guitar","selectedtuning":"6_standard","version":"13"}

Member for

2 months 1 week
Submitted by revo on Tue, 2020-07-21 07:11