Sound will begin in 5 seconds

Carolina

01234567891011121314151617181920212223
E
B
G
D
A
E
B
0 1 2 3 4 5 6 7 8 9 10 11 12 13 14 15 16 17 18 19 20 21 22 23
Song Science #1: How Pros Use 6 Chords to Write Hit Songs
(/) Slide Up  (\) Slide Down  (h) Hammer On  (p) Pull Off  (b) Bend (r) Release (v) Vibrato

Stave 1:

E|-------------------
B|--5--5--5--3--1--0--
G|--0--0--0--0--0--0--
D|-------------------
A|-------------------
E|-------------------

Stave 2:

E|-----------------------------------------------------
B|--0--0--1--3--3--3--3--3--1--0--1--0-----------------
G|--------------------------------------0--2--0--------
D|-----------------------------------------------2-----
A|--------------------------------------------------3--
E|-----------------------------------------------------

Stave 3:

E|--------8--10--12--10------------------
B|-----8-----------------12--10------10--
G|--9----------------------------12------
D|---------------------------------------
A|---------------------------------------
E|---------------------------------------

Stave 4:

E|--------------------------------------------
B|--------------------------------------------
G|--9--9--9----------9--9--------------9--12--
D|-----------12--10--------12--10--12---------
A|--------------------------------------------
E|--------------------------------------------

Stave 5:

E|------10--10--------------
B|--12----------12--10------
G|----------------------12--
D|--------------------------
A|--------------------------
E|--------------------------

Stave 6:

E|------12----------------------
B|--12------12--10------10------
G|------------------12------12--
D|------------------------------
A|------------------------------
E|------------------------------

Stave 7:

E|-------------------------------------------
B|--12--13--14--15--12--8--------------------
G|-------------------------5--7--3--4--0-----
D|----------------------------------------0--
A|-------------------------------------------
E|-------------------------------------------

Stave 8:

E|------10------12--10----------------------
B|--12------12----------11--12--------------
G|------------------------------12----------
D|----------------------------------12--10--
A|------------------------------------------
E|------------------------------------------

Stave 9:

E|------------------14----------12----------10---------8--
B|------10------------------------------------------------
G|--11------11--14------14--12------12--11------11--9-----
D|--------------------------------------------------------
A|--------------------------------------------------------
E|--------------------------------------------------------

http://www.guitartabcreator.com
Guitar Tab Creator is intended to store guitar tab created through the tool. It currently does not support in-line text editing. Any text you place in here will be lost. If you need to comment on your tab, please use the "Tab Notes" section located below.