Sound will begin in 5 seconds

Vine Climb

Chords
01234567891011121314151617181920212223
E
B
G
D
A
E
B
0 1 2 3 4 5 6 7 8 9 10 11 12 13 14 15 16 17 18 19 20 21 22 23
(/) Slide Up  (\) Slide Down  (h) Hammer On  (p) Pull Off  (b) Bend (r) Release (v) Vibrato

Stave 1:

E|------0--------------0--12v--------------0----------0----------
B|---------10----------------------------------------------------
G|---------------------------------------------------------------
D|---------------------------------------------------------------
A|--12---------12----------------------15-----15---------17------
E|-----------------12----------12--13-------------15---------15--

Stave 2:

E|------0--------------0--12v--------------0----------0----------
B|---------10----------------------------------------------------
G|---------------------------------------------------------------
D|---------------------------------------------------------------
A|--12---------12----------------------15-----15---------17------
E|-----------------12----------12--13-------------15---------15--

Stave 3:

E|--0-----------------0-------------12v----------0----------0----------
B|------12v--12v--10------12v--12v-------------------------------------
G|---------------------------------------------------------------------
D|---------------------------------------------------------------------
A|--12---------------------------------------15-----15---------17------
E|--------------------12-----------------13-------------15---------15--

Stave 4:

E|--0-----------------0-------------12v----------0----------0----------
B|------12v--12v--10------12v--12v-------------------------------------
G|---------------------------------------------------------------------
D|---------------------------------------------------------------------
A|--12---------------------------------------15-----15---------17------
E|--------------------12-----------------13-------------15---------15--

Stave 5:

E|--0-----------------0-------------12v----------0----------0----------
B|------12v--12v--10------12v--12v-------0--------------0--------------
G|---------------------------------------------------------------------
D|---------------------------------------------------------------------
A|--12---------------------------------------15-----15---------17------
E|--------------------12-----------------13-------------15---------15--

Stave 6:

E|--0-----------------0-------------12v----------0----------0----------
B|------12v--12v--10------12v--12v-------0--------------0--------------
G|---------------------------------------------------------------------
D|---------------------------------------------------------------------
A|--12---------------------------------------15-----15---------17------
E|--------------------12-----------------13-------------15---------15--

http://www.guitartabcreator.com
Guitar Tab Creator is intended to store guitar tab created through the tool. It currently does not support in-line text editing. Any text you place in here will be lost. If you need to comment on your tab, please use the "Tab Notes" section located below.