Restraint - Anarchy For You

Chords

01234567891011121314151617181920212223
E
B
G
D
A
E
B
0 1 2 3 4 5 6 7 8 9 10 11 12 13 14 15 16 17 18 19 20 21 22 23
(/) Slide Up  (\) Slide Down  (h) Hammer On  (p) Pull Off  (b) Bend (r) Release (v) Vibrato

Intro/Mellanspel x4
E|-------------------------------------------------------|
B|-------------------------------------------------------|
G|-7--7--6--6--4--4--------------------------------------|
D|-7--7--6--6--4--4-4--4-5-5-5-5-5-5-5-5-7-7-7-7-7-7-7-7-|
A|-5--5--4--4--2--2-4--4-5-5-5-5-5-5-5-5-7-7-7-7-7-7-7-7-|
E|------------------2--2-3-3-3-3-3-3-3-3-5-5-5-5-5-5-5-5-|



Vers x2
E|---------------------------------|
B|---------------------------------|
G|-7-7-7-7-7-7-7-7-----------------|
D|-7-7-7-7-7-7-7-7-7-7-7-7-7-7-7-7-|
A|-5-5-5-5-5-5-5-5-7-7-7-7-7-7-7-7-|
E|-----------------5-5-5-5-5-5-5-5-|



Brygga x3                            x1
E|---------------------------------|---------------------------------|
B|---------------------------------|---------------------------------|
G|---------------------------------|---------------------------------|
D|-9-9-9-9-9-9-9-9-5-5-5-5-5-5-5-5-|-7-7-7-7-7-7-7-7-7-7-7-7-7-7-7-7-|
A|-9-9-9-9-9-9-9-9-5-5-5-5-5-5-5-5-|-7-7-7-7-7-7-7-7-7-7-7-7-7-7-7-7-|
E|-7-7-7-7-7-7-7-7-3-3-3-3-3-3-3-3-|-5-5-5-5-5-5-5-5-5-5-5-5-5-5-5-5-|



Refräng x2
E|------------------------------|
B|------------------------------|
G|-7-7-7-7-6-6-6-6-4-4-4-4------|
D|-7-7-7-7-6-6-6-6-4-4-4-4-5--7-|
A|-5-5-5-5-4-4-4-4-2-2-2-2-5--7-|
E|-------------------------3--5-|


Låtform:

Intro
Vers
Brygga
Refräng
Mellanspel
Vers
Brygga
Refräng
Mellanspel
Vers
Brygga
Refräng x2
Outro



							http://www.guitartabcreator.com
[[],[],[],[],[],[]]

Member for

7 years 7 months
Submitted by restraint on Mon, 2012-10-29 16:38