Sound will begin in 5 seconds

unlimited saga ventus

Chords
01234567891011121314151617181920212223
E
B
G
D
A
E
B
0 1 2 3 4 5 6 7 8 9 10 11 12 13 14 15 16 17 18 19 20 21 22 23
Song Science #1: How Pros Use 6 Chords to Write Hit Songs
(/) Slide Up  (\) Slide Down  (h) Hammer On  (p) Pull Off  (b) Bend (r) Release (v) Vibrato

Stave 1:

E|-----------2---------------------0-----------4-4---------------5-3-----5-4---3-
B|---3---3---2-----7---3---3---1---2-------6---5-5---6---2---3---3-3-3---3-3---3-
G|---2---3---2-----6-------3---------2-----6---5-----5---3---3---3-3-----3-3-3-3-
D|-3-3---2---------7---3---2---2-2-----2-------------6---3---3-3-------3---------
A|-----3---0---0-5-------3---------------6---------4-----------------------------
E|-------------------3-------1---------------4---------2---3---------------------

Stave 2:

E|-----------2---------------------0-----------4-4---------------5-3-----5-4---3-
B|---3---3---2-----7---3---3---1---2-------6---5-5---6---2---3---3-3-3---3-3---3-
G|---2---3---2-----6-------3---------2-----6---5-----5---3---3---3-3-----3-3-3-3-
D|---3---2---------7---3---2---2-2-----2-------------6---3---3-3-------3-------3-
A|-1---3---0---0-5-------3---------------6---------4-----------------------------
E|-------------------3-------1---------------4---------2---3---------------------

Stave 3:

E|-8---8---8---8---8----8---8---8---
B|-------6---6---8------------6---9-
G|-8-8-8---8---8-8-8-10-8-8-8---8-9-
D|---6---6---6-------10---6---6---8-
A|------------------------8---------
E|----------------------------------

http://www.guitartabcreator.com
Guitar Tab Creator is intended to store guitar tab created through the tool. It currently does not support in-line text editing. Any text you place in here will be lost. If you need to comment on your tab, please use the "Tab Notes" section located below.