Sound will begin in 5 seconds

Cm/G melody (Finger-picked)

01234567891011121314151617181920212223
E
B
G
D
A
E
B
0 1 2 3 4 5 6 7 8 9 10 11 12 13 14 15 16 17 18 19 20 21 22 23
Song Science #1: How Pros Use 6 Chords to Write Hit Songs
(/) Slide Up  (\) Slide Down  (h) Hammer On  (p) Pull Off  (b) Bend (r) Release (v) Vibrato

Stave 1:

Eb|------------------------------------------------------------------------------------------------
Bb|---------------------------------------------------------0-----------0-----------0-----------0--
Gb|-------------0----------------------0-----------------1-----------1-----------1-----------1-----
Db|--------0h1-----1-----1--------0h1-----1-----1-----3-----------3-----------3-----------3--------
Ab|-----3-------------3--------3-------------3-----2-----------2-----------2-----------2-----------
Eb|--3----------------------3----------------------------------------------------------------------

Stave 2:

Eb|------------------------------------------------------------------------------------3--3-----
Bb|--1-----------1-----------1-----------1---------------------------------------------3-----3--
Gb|-----1-----------1-----------1-----------1--------------------0h5p0-----------------3--------
Db|--------1-----------1-----------1-----------1-----------5------------------------3-----------
Ab|-----------3-----------3-----------3-----------3-----6------------------6-----5--------------
Eb|--------------------------------------------------6--------6---------6-----3-----------------

Stave 3:

Eb|--
Bb|--
Gb|--
Db|--
Ab|--
Eb|--

http://www.guitartabcreator.com
Guitar Tab Creator is intended to store guitar tab created through the tool. It currently does not support in-line text editing. Any text you place in here will be lost. If you need to comment on your tab, please use the "Tab Notes" section located below.