Sound will begin in 5 seconds

Parte Ritmica

Chords
01234567891011121314151617181920212223
E
B
G
D
A
E
B
0 1 2 3 4 5 6 7 8 9 10 11 12 13 14 15 16 17 18 19 20 21 22 23
Song Science #1: How Pros Use 6 Chords to Write Hit Songs
(/) Slide Up  (\) Slide Down  (h) Hammer On  (p) Pull Off  (b) Bend (r) Release (v) Vibrato

Stave 1:

E|-----3--x-----3--x-----3--x--
B|-----3--x-----3--x-----3--x--
G|-----4--x-----4--x-----4--x--
D|-----5--x-----5--x-----5--x--
A|-----5--x-----5--x-----5--x--
E|-----3--x-----3--x-----3--x--

Stave 2:

E|-----3--x--3--x--8---x--8------
B|-----3--x--3--x--8---x--8------
G|-----4--x--4--x--9---x--9------
D|-----5--x--5--x--10--x--10-----
A|-----5--x--5--x--10--x--10-----
E|-----3--x--3--x--8---x--8------

Stave 3:

E|-----8------8---8------8---8---8------8---8---8---8---
B|-----8------8---8------8---8---8------8---8---8---8---
G|-----9------9---9------9---9---9------9---9---9---9---
D|-----10-----10--10-----10--10--10-----10--10--10--10--
A|-----10-----10--10-----10--10--10-----10--10--10--10--
E|-----8------8---8------8---8---8------8---8---8---8---

Stave 4:

E|-----10--10--10--10--10--10--10--
B|-----10--10--10--10--10--10--10--
G|-----11--11--11--11--11--11--11--
D|-----12--12--12--12--12--12--12--
A|-----12--12--12--12--12--12--12--
E|-----10--10--10--10--10--10--10--

http://www.guitartabcreator.com
Guitar Tab Creator is intended to store guitar tab created through the tool. It currently does not support in-line text editing. Any text you place in here will be lost. If you need to comment on your tab, please use the "Tab Notes" section located below.