Sound will begin in 5 seconds

ALIGHTED {CHELSEA LIGHT MOVING}

Chords
01234567891011121314151617181920212223
E
B
G
D
A
E
B
0 1 2 3 4 5 6 7 8 9 10 11 12 13 14 15 16 17 18 19 20 21 22 23
(/) Slide Up  (\) Slide Down  (h) Hammer On  (p) Pull Off  (b) Bend (r) Release (v) Vibrato

ripetere sei volte

B|--------------------------------------------------
B|--3--3--3--3--1--1--1--1--2--2--2--2--0--0--0--0--
G|--------------------------------------------------
D|--------------------------------------------------
G|--------------------------------------------------
C|--------------------------------------------------

ripetere sei volte

B|--10\---3-----7--
B|--10----3-----7--
G|--8-----1-----5--
D|--8-----1-----5--
G|--8-----1-----5--
C|-----------------

tenere

B|--7--
B|--7--
G|--5--
D|--5--
G|--5--
C|-----

ripetere quattro volte

B|--------------------------------------------
B|--------------------------------------------
G|--------------------------------------------
D|-----------------3--2-----------------2--1--
G|-----------------3--2-----------------2--1--
C|--0--0--0--0--0--------0--0--0--0--0--------

ripetere quattro volte

B|-------------------------------------------------
B|-------------------------------------------------
G|-------------------------------------------------
D|--------------------3----------------2--1--0-----
G|--------------------3----------------2--1--0-----
C|--0--0--0--0--0--0----0--0--0--0--0--------------

ripetere quattro volte

B|--10-----3-----7--
B|--10-----3-----7--
G|--8------1-----5--
D|--8------1-----5--
G|--8------1-----5--
C|------------------

tenere

B|--7--
B|--7--
G|--5--
D|--5--
G|--5--
C|-----

ripetere due volte

B|--------------------------------------------------------------------------------------
B|--------------------------------------------------------------------------------------
G|--------------------------------------------------------------------------------------
D|-----------------3--2-----------------2--1-----------------3--2-----------------2--1--
G|-----------------3--2-----------------2--1-----------------3--2-----------------2--1--
C|--0--0--0--0--0--------0--0--0--0--0--------0--0--0--0--0--------0--0--0--0--0--------

ripetere 3 volte

B|----------------------------------------------
B|----------------------------------------------
G|----------------------------------------------
D|--------------------3----------------2--1--0--
G|--------------------3----------------2--1--0--
C|--0--0--0--0--0--0----0--0--0--0--0-----------

Stave 10:

B|--------------------------------------------------
B|--------------------------------------------------
G|--------------------------------------------------
D|--------------------3----------------2--1---------
G|--------------------3----------------2--1---------
C|--0--0--0--0--0--0----0--0--0--0--0---------------

Stave 11:

B|--------------------------
B|--------------------------
G|--------------3-----------
D|--------------------------
G|--1-----1--1--------------
C|--------------------------

Stave 12:

B|--
B|--
G|--
D|--
G|--
C|--

http://www.guitartabcreator.com
Guitar Tab Creator is intended to store guitar tab created through the tool. It currently does not support in-line text editing. Any text you place in here will be lost. If you need to comment on your tab, please use the "Tab Notes" section located below.