Sound will begin in 5 seconds

SWEET CHILD

01234567891011121314151617181920212223
E
B
G
D
A
E
B
0 1 2 3 4 5 6 7 8 9 10 11 12 13 14 15 16 17 18 19 20 21 22 23
Song Science #1: How Pros Use 6 Chords to Write Hit Songs
(/) Slide Up  (\) Slide Down  (h) Hammer On  (p) Pull Off  (b) Bend (r) Release (v) Vibrato

Stave 1:

E|-----------------------------------------------------------------------------------------
B|-10-10-10-10p8-7-8-10-------------8p7\5--------------------------------------------------
G|----------------------9b11r9-7----------12-12-12p11\9----9h11h12p11p9-12p11p9-12p11p9-12-
D|-----------------------------------------------------------------------------------------
A|-----------------------------------------------------------------------------------------
E|-----------------------------------------------------------------------------------------

Stave 2:

E|-------------|----------------------------------------------------------------------------
B|-------------|-10-10-10-8p7-8/10-7----7/10-8p7\5-8-8-8b10-8-7-8p7-8p7-8p7h8-----7-8-8p7-8-
G|-12b14-12-11-|--------------------------------------------------------------7-9-----------
D|-------------|----------------------------------------------------------------------------
A|-------------|----------------------------------------------------------------------------
E|-------------|----------------------------------------------------------------------------

Stave 3:

E|----------|-|-|-----------------------------------------------------------------
B|-8b10r8-7-|-|-|-10-10-10-8p7-8/10----------8-8-8p7h8p7----7/8-8-8-8p7-8-8-8p7p5-
G|----------|-|-|-------------------9b11r9-7--------------------------------------
D|----------|-|-|-----------------------------------------------------------------
A|----------|-|-|-----------------------------------------------------------------
E|----------|-|-|-----------------------------------------------------------------

Stave 4:

E|---------|-----------------------------------------------------------------
B|-8p7p5---|-8h10-10-10-10p8\7-8/10--------8p7p5-8-8b10r8p7---8h10p8-8\7/8-8\
G|-------7-|------------------------9b11r9------------------7----------------
D|---------|-----------------------------------------------------------------
A|---------|-----------------------------------------------------------------
E|---------|-----------------------------------------------------------------

Stave 5:

E|----
B|----
G|----
D|----
A|-16-
E|----

http://www.guitartabcreator.com
Guitar Tab Creator is intended to store guitar tab created through the tool. It currently does not support in-line text editing. Any text you place in here will be lost. If you need to comment on your tab, please use the "Tab Notes" section located below.