Sound will begin in 5 seconds

SONDA ME TOM C MAIOR

Chords
01234567891011121314151617181920212223
E
B
G
D
A
E
B
0 1 2 3 4 5 6 7 8 9 10 11 12 13 14 15 16 17 18 19 20 21 22 23
Song Science #1: How Pros Use 6 Chords to Write Hit Songs
(/) Slide Up  (\) Slide Down  (h) Hammer On  (p) Pull Off  (b) Bend (r) Release (v) Vibrato

Stave 1:

E|----------------------------------------------|--------------------------|-
B|-5/8-8-8/10\8-8-------8---------8-------------|---------5/6-5------------|-
G|-----7--------7-7\5---7b9r7p5-7-7b9r7p5-7-7/9-|-----5-5-------5----------|-
D|--------------------7-------------------------|-5/7-------------5-5/7----|-
A|----------------------------------------------|--------------------------|-
E|----------------------------------------------|--------------------------|-

Stave 2:

E|-------------------5h7h8-10-10p8-------------|-|-----------------------|-
B|-------------5h6h8---------------12-12/13-13-|-|-------------6p5-------|-
G|-5/7\5\4-5h7---------------------------------|-|---5-5/7-7-5-----7-5-5-|-
D|---------------------------------------------|-|-5---------------------|-
A|---------------------------------------------|-|-----------------------|-
E|---------------------------------------------|-|-----------------------|-

Stave 3:

E|---------------------------------------------7h8h10/12-10----------|-
B|----------------------------------------8h10--------------13-12-10-|-
G|-----5-5---7p5-5p4------------------7h9----------------------------|-
D|-5/7-5-5-7---------5/7-7-4-5-7/9/10--------------------------------|-
A|-------------------------------------------------------------------|-
E|-------------------------------------------------------------------|-

Stave 4:

E|---------------------------|---------------------------------------
B|---------------5b6r5-------|--------------------------------8-8----
G|-----5-5-7-7-5-------7-7-5-|-----5-5---5/7-9-7-----7-7h9h10-----10-
D|-5-5-----------------------|-7-7-----7---------7h9-----------------
A|---------------------------|---------------------------------------
E|---------------------------|---------------------------------------

Stave 5:

E|-------------------|---------------------------|-|-
B|-------------------|---------------------------|-|-
G|-9-7-5-----5-------|-----7-7/12-4-3-2-14-12-12-|-|-
D|-------5-7---7-5/7-|-7/9-----------------------|-|-
A|-------------------|---------------------------|-|-
E|-------------------|---------------------------|-|-

Stave 6:

E|----------------------------------------------------------------------------------------------------------|-
B|----------------------------------------------------------------------------------------------------------|-
G|-12-14-16-17-17-17-16-16-14-14-12-17-17-17-16-16-14-14-12-14-14-14-12-12-------12/14-14-14-12-12-12-14----|-
D|-------------------------------------------------------------------------10-10----------------------------|-
A|----------------------------------------------------------------------------------------------------------|-
E|----------------------------------------------------------------------------------------------------------|-

Stave 7:

E|-
B|-
G|-
D|-
A|-
E|-

http://www.guitartabcreator.com
Guitar Tab Creator is intended to store guitar tab created through the tool. It currently does not support in-line text editing. Any text you place in here will be lost. If you need to comment on your tab, please use the "Tab Notes" section located below.