Sound will begin in 5 seconds

PHILL COLLINS TOM G MAIOR

01234567891011121314151617181920212223
E
B
G
D
A
E
B
0 1 2 3 4 5 6 7 8 9 10 11 12 13 14 15 16 17 18 19 20 21 22 23
Song Science #1: How Pros Use 6 Chords to Write Hit Songs
(/) Slide Up  (\) Slide Down  (h) Hammer On  (p) Pull Off  (b) Bend (r) Release (v) Vibrato

Stave 1:

E|--------------------------------------|---------------|-|------------------------|-
B|--------------------------------------|---------------|-|------------------------|-
G|-7-7-7-7----7-5-5---5-7---------------|---------------|-|-5-5-5h7-7----7-7p5---5-|-
D|------------------7-----5\3---5/7\5/7-|-3-3h5/7-5p3---|-|--------------------7---|-
A|----------------------------5---------|-------------5-|-|------------------------|-
E|--------------------------------------|---------------|-|------------------------|-

Stave 2:

E|-------------------|------------------------------------------------------|-|-
B|-------------------|------------------------------------------------------|-|-
G|-------------------|------------------------------------------5-5---5---5-|-|-
D|-5/7-5\3-3-3/5-3/7-|-----5/7\5-3-3/5--------5/7\5-3-3/5-3-5/7-----7---7---|-|-
A|-------------------|-5-5----------------5-5-------------------------------|-|-
E|-------------------|------------------------------------------------------|-|-

Stave 3:

E|-------------------------|-------------------------|------------------------|-
B|-------------------------|-------------------------|--------------6-5-------|-
G|-----5/7\5/7---5/7-7-7\5-|-------------------------|-----5------------7-5-5-|-
D|-5-7---------7-----------|-5-7-5p3-5/7-5p3-5/7-5\3-|-5h7---7----7-----------|-
A|-------------------------|-------------------------|------------------------|-
E|-------------------------|-------------------------|------------------------|-

Stave 4:

E|-----------------------------------------------------------------|-------------------------------
B|-----------------------------------------------------------------|-------------------------------
G|---5-7-5---5------------------------------------------5-5---5/19-|-19-19-19-19----19-17-17----17-
D|-7-------7------5h7-5-5\3-5-3-5/7----7-5-3-5-5/7----7-----7------|-------------------------19----
A|-----------------------------------------------------------------|-------------------------------
E|-----------------------------------------------------------------|-------------------------------

Stave 5:

E|----------------------|-------------------------------------|-13-13-13-13-13-12-12-13b15-13-12----
B|----------------------|-------------------------------------|----------------------------------15-
G|-19-------------------|-------------------------------------|-------------------------------------
D|----17-15----19-17-19-|-------------16-17-17h19p17----------|-------------------------------------
A|----------17----------|-------17-19----------------19-17-19-|-------------------------------------
E|----------------------|-17-19-------------------------------|-------------------------------------

Stave 6:

E|-------------------------------------------------------------------------|-------------17-17-15-13----
B|-------------20-------20-------20-20b22-20b22-20-20-18----20b22-20-18----|----------20-------------15-
G|-17-17-17-17----17-17----17-17-------------------------19-------------19-|-17-17-17-------------------
D|-------------------------------------------------------------------------|----------------------------
A|-------------------------------------------------------------------------|----------------------------
E|-------------------------------------------------------------------------|----------------------------

http://www.guitartabcreator.com
Guitar Tab Creator is intended to store guitar tab created through the tool. It currently does not support in-line text editing. Any text you place in here will be lost. If you need to comment on your tab, please use the "Tab Notes" section located below.