Sound will begin in 5 seconds

PHILL COLLINS tom D

01234567891011121314151617181920212223
E
B
G
D
A
E
B
0 1 2 3 4 5 6 7 8 9 10 11 12 13 14 15 16 17 18 19 20 21 22 23
Song Science #1: How Pros Use 6 Chords to Write Hit Songs
(/) Slide Up  (\) Slide Down  (h) Hammer On  (p) Pull Off  (b) Bend (r) Release (v) Vibrato

Stave 1:

E|---------------------------------------------------------------------|-----------------------------
B|---------------------------------------------------------------------|-----------------------------
G|---------------------------------------------------------------------|-----------------------------
D|-11-11-11-11-11p9-11/12-9-9-9-9h11-9p7-6---7-7-7-7-9-9\7-6h7-7-7-----|-11-11-11-11-11-9-11h12p11\9-
A|-----------------------------------------9-----------------------7\4-|-----------------------------
E|---------------------------------------------------------------------|-----------------------------

Stave 2:

E|--------------------------------------------------------|--------------------------------
B|--------------------------------------------------------|---------------------------7-10-
G|--------------------------------------------------------|-9-9-9-9-11-9b11r9-6-6-9-9------
D|-9p7-9p7-11p9\7-7p6---7-7-7-7-7-9-9-9/14-11-7-7-7h9-9\7-|--------------------------------
A|--------------------9-----------------------------------|--------------------------------
E|--------------------------------------------------------|--------------------------------

Stave 3:

E|-------------------------------------------------------------------------------------------
B|-10-7---------------5-5-5-5-10-10/14----9-9-9-9-9h12-12p10-12p10-12-10-12b14r12-10-10\9----
G|------9-9-9-9-6-------------------------------------------------------------------------11-
D|----------------7\4------------------------------------------------------------------------
A|-------------------------------------------------------------------------------------------
E|-------------------------------------------------------------------------------------------

Stave 4:

E|---------------------------------------|-----------------------------------------------------------
B|-10-10-10-10-10p8p7---8/10-10/12-12\10-|-10-10-10-10-10h12-12p10-12p10-12p10-12b14r12-10-10p9-9----
G|--------------------7------------------|--------------------------------------------------------11-
D|---------------------------------------|-----------------------------------------------------------
A|---------------------------------------|-----------------------------------------------------------
E|---------------------------------------|-----------------------------------------------------------

Stave 5:

E|------------------------------|-------------9----9----9-------------------9----9----9b10-9----
B|-10-10-10-10p8p7-----10-10-10-|-10-10-10h12---12---12---12-10-10-10-10h12---12---12--------12-
G|-----------------7-7----------|---------------------------------------------------------------
D|------------------------------|---------------------------------------------------------------
A|------------------------------|---------------------------------------------------------------
E|------------------------------|---------------------------------------------------------------

Stave 6:

E|-------------------------------------------
B|-10-10-10-10-12-12b14-14b15r14p12-10h12b10-
G|-------------------------------------------
D|-------------------------------------------
A|-------------------------------------------
E|-------------------------------------------

http://www.guitartabcreator.com
Guitar Tab Creator is intended to store guitar tab created through the tool. It currently does not support in-line text editing. Any text you place in here will be lost. If you need to comment on your tab, please use the "Tab Notes" section located below.