Sound will begin in 5 seconds

MAIOR TROFEU TOM E

01234567891011121314151617181920212223
E
B
G
D
A
E
B
0 1 2 3 4 5 6 7 8 9 10 11 12 13 14 15 16 17 18 19 20 21 22 23
Song Science #1: How Pros Use 6 Chords to Write Hit Songs
(/) Slide Up  (\) Slide Down  (h) Hammer On  (p) Pull Off  (b) Bend (r) Release (v) Vibrato

Stave 1:

E|------------------------------------------------------------|--------------------------------------
B|------------------------------------------------------------|--------------------------9-----------
G|----------------9-11-9-8-9-9------9-8-6---6-----------------|----------------9-9-11-11---11-9-8----
D|-------9-9-11-9-----------------9-------9---9-7-6-7-6-7-9-6-|-------9-9-11-9--------------------11-
A|-11-11------------------------------------------------------|-11-11--------------------------------
E|------------------------------------------------------------|--------------------------------------

Stave 2:

E|-----------------------------|---------------------------------------------------------------------
B|------------------9----------|--------------------------9------------------------------------------
G|-9-9-8-8-9-9-8-11---11-9-8-9-|-9-9-8-9-11-11---11-11-11---11-9-8---------9-8-6---6-----------------
D|-----------------------------|---------------9-------------------11----9-------9---9-7-6-7-6-7-9-6-
A|-----------------------------|---------------------------------------------------------------------
E|-----------------------------|---------------------------------------------------------------------

Stave 3:

E|--------------------------------------------------------------------------|---------------------
B|----9-9-9-9------------------------9--------------------------------------|---------------------
G|-11---------11-9-11-11------9-9-11---11-9-8-------9-9-8-8-9-9-9-8-9-11----|-9-8-6---------------
D|-----------------------9--------------------11----------------------------|-------9-7-9-9-7-6---
A|--------------------------------------------------------------------------|-------------------9-
E|--------------------------------------------------------------------------|---------------------

Stave 4:

E|----------|----------------------------|-|-|---------------------------------------------------------
B|----------|----------------------------|-|-|---------------------------------------------------------
G|-8-8-9-11-|-------9-9-11-13-11-11-9-11-|-|-|-9-9-9-9---11---11-11-11-11-11-13-14-14-14-13-11-9-------
D|----------|-9-9-9----------------------|-|-|---------9----9------------------------------------11----
A|----------|----------------------------|-|-|---------------------------------------------------------
E|----------|----------------------------|-|-|---------------------------------------------------------

Stave 5:

E|-------------------------------------------------------|-|-
B|-------------------------------------------------------|-|-
G|----------8-9-8-9-8--------------9-9-9-9-8-9-8-9-13-13-|-|-
D|-11-11-11-----------11-9-11-7--------------------------|-|-
A|-------------------------------------------------------|-|-
E|-------------------------------------------------------|-|-

http://www.guitartabcreator.com
Guitar Tab Creator is intended to store guitar tab created through the tool. It currently does not support in-line text editing. Any text you place in here will be lost. If you need to comment on your tab, please use the "Tab Notes" section located below.