Sound will begin in 5 seconds

LIKS EM D ou Bm bon jovi

Chords
01234567891011121314151617181920212223
E
B
G
D
A
E
B
0 1 2 3 4 5 6 7 8 9 10 11 12 13 14 15 16 17 18 19 20 21 22 23
Song Science #1: How Pros Use 6 Chords to Write Hit Songs
(/) Slide Up  (\) Slide Down  (h) Hammer On  (p) Pull Off  (b) Bend (r) Release (v) Vibrato

Stave 1:

E|--------------------|------------------|-------------|-------------------------------------------|-
B|-7------------------|-7----------------|-------------|-------------------------------------------|-
G|-9b11-9p7---7---7-7-|-9b11-9p7---7-9---|-------12-12-|-------------11-11----------------11-------|-
D|----------9---9-----|----------9-----9-|-------12-12-|-12----14b16-------14b16r14----------14/12-|-
A|--------------------|------------------|-12h14-------|----14----------------------14-14----------|-
E|--------------------|------------------|-------------|-------------------------------------------|-

Stave 2:

E|-------------------------------|---------7----------------------------------------------|-
B|-------------------------------|---10b12---10-7-10p7----7-------------------------------|-
G|-------------------------------|-7-------------------10---10p7-9p7---7------------------|-
D|-------------------------------|-----------------------------------9---9-7-9p7----------|-
A|-7/9\7\5----7/9\7/10----10\9\7-|-----------------------------------------------9-8-7----|-
E|-------------------------------|-----------------------------------------------------10-|-

Stave 3:

E|-----------------------|------------------------------------|-
B|-----------------------|---------7--------------10----------|-
G|---------7h9-7---------|---------7h9-7---7-9/11----11\9-7---|-
D|-----7-9-7---7-9p7-----|-----7---------9------------------9-|-
A|-7/9---------------9-7-|-7/9---9----------------------------|-
E|-----------------------|------------------------------------|-

http://www.guitartabcreator.com
Guitar Tab Creator is intended to store guitar tab created through the tool. It currently does not support in-line text editing. Any text you place in here will be lost. If you need to comment on your tab, please use the "Tab Notes" section located below.