Sound will begin in 5 seconds

LICKS RAPIDOS C D E F

01234567891011121314151617181920212223
E
B
G
D
A
E
B
0 1 2 3 4 5 6 7 8 9 10 11 12 13 14 15 16 17 18 19 20 21 22 23
Song Science #1: How Pros Use 6 Chords to Write Hit Songs
(/) Slide Up  (\) Slide Down  (h) Hammer On  (p) Pull Off  (b) Bend (r) Release (v) Vibrato

Stave 1:

E|---------------------------------8-10-12-13/15p12-------------------------15h20-
B|-------------------------8-10-12------------------13-------------------17-------
G|-------------------5-7-9-----------------------------12-------------17----------
D|-------------5-7-9--------------------------------------14-------17-------------
A|-------3-5-7-----------------------------------------------15/19----------------
E|-3-5-7--------------------------------------------------------------------------

Stave 2:

E|--------------------------------10-12-14/17p14-------------------------17h22-
B|-------------------------7-8-10----------------15-------------------19-------
G|-------------------6-7-9--------------------------14-------------19----------
D|-------------4-5-7-----------------------------------16-------19-------------
A|-------4-5-7--------------------------------------------17/21----------------
E|-2-3-5-----------------------------------------------------------------------

Stave 3:

E|-------------------------------5-7-9/16----------------------16h19-
B|-------------------------5-7-9----------17----------------17-------
G|-------------------4-6-8-------------------16----------16----------
D|-------------4-6-7----------------------------18----18-------------
A|-------2-4-6-------------------------------------19----------------
E|-2-4-5-------------------------------------------------------------

Stave 4:

E|--------------------------------6-8-10-12-
B|-------------------------6-8-10-----------
G|-------------------3-5-7------------------
D|-------------3-5-7------------------------
A|-------1-3-5------------------------------
E|-1-3-5------------------------------------

http://www.guitartabcreator.com
Guitar Tab Creator is intended to store guitar tab created through the tool. It currently does not support in-line text editing. Any text you place in here will be lost. If you need to comment on your tab, please use the "Tab Notes" section located below.