Sound will begin in 5 seconds

LICKS RAPIDOS Am ou C

01234567891011121314151617181920212223
E
B
G
D
A
E
B
0 1 2 3 4 5 6 7 8 9 10 11 12 13 14 15 16 17 18 19 20 21 22 23
Song Science #1: How Pros Use 6 Chords to Write Hit Songs
(/) Slide Up  (\) Slide Down  (h) Hammer On  (p) Pull Off  (b) Bend (r) Release (v) Vibrato

Stave 1:

E|----------------------------------------------------------------------------------------------------
B|-----------------------------------------------------------------------------------8------8-10----8-
G|-------------------------------------------------------7------7-9----7-9-10-7-9-10---9-10------10---
D|---------------------------7------7-9----7-9-10-7-9-10---9-10-----10--------------------------------
A|------7-8----7-8-10-7-8-10---8-10-----10------------------------------------------------------------
E|-8-10-----10----------------------------------------------------------------------------------------

Stave 2:

E|----7------7-10-8-|-|-8p5-----------------------------------------------|-|------------------------
B|-10---8-10--------|-|-----8-5-----8p5-----------------------------------|-|------------------------
G|------------------|-|---------7-5-----7-5-----7p5-----------------------|-|-9----9---------------9-
D|------------------|-|---------------------7-5-----7-5-----7p5---------7-|-|---12---12-10-9-10-12---
A|------------------|-|---------------------------------7-5-----7-5-------|-|------------------------
E|------------------|-|---------------------------------------------8-5---|-|------------------------

Stave 3:

E|------------------------------------------------|-|-------------------------12----------13----------
B|------------------------------------------------|-|-13----------15----------------------------------
G|-9---------------9----9---------------9----9----|-|----14-12-14----14-12-14----14-12-14----14-12-14-
D|---12-10-9-10-12---12---12-10-9-10-12---12---10-|-|-------------------------------------------------
A|------------------------------------------------|-|-------------------------------------------------
E|------------------------------------------------|-|-------------------------------------------------

Stave 4:

E|-12-------------------------------------------------|-|-
B|-------------15----------13----------12----------13-|-|-
G|----14-12-14----14-12-14----14-12-14----14-12-14----|-|-
D|----------------------------------------------------|-|-
A|----------------------------------------------------|-|-
E|----------------------------------------------------|-|-

http://www.guitartabcreator.com
Guitar Tab Creator is intended to store guitar tab created through the tool. It currently does not support in-line text editing. Any text you place in here will be lost. If you need to comment on your tab, please use the "Tab Notes" section located below.