Sound will begin in 5 seconds

LICKS EM G ou E m

01234567891011121314151617181920212223
E
B
G
D
A
E
B
0 1 2 3 4 5 6 7 8 9 10 11 12 13 14 15 16 17 18 19 20 21 22 23
Song Science #1: How Pros Use 6 Chords to Write Hit Songs
(/) Slide Up  (\) Slide Down  (h) Hammer On  (p) Pull Off  (b) Bend (r) Release (v) Vibrato

Stave 1:

E|----------------------------------------------------------------------------------------12----|-
B|----------------------------------------------------------------12-------15p12----12h15----15-|-
G|----------------------------------------12-------14p12----12h14----14-12-------14-------------|-
D|----------------12-------14p12----12h14----14-12-------14-------------------------------------|-
A|-14p12----12h14----14-12-------14-------------------------------------------------------------|-
E|-------15-------------------------------------------------------------------------------------|-

Stave 2:

E|-15p12----12----------------------------------------------------------------|-
B|-------15----15-12-15p12----12----------------12----------------15-12-15b17-|-
G|-------------------------15----15-14-12-14-15----15-14-12-14-15-------------|-
D|----------------------------------------------------------------------------|-
A|----------------------------------------------------------------------------|-
E|----------------------------------------------------------------------------|-

Stave 3:

E|----------------------------------------------------------------------------------------
B|-12-12p17----12-15p12----12-17-12-17p12----12-15p12-15p12----12-15-17/19b20-17-15-15b17-
G|----------15----------15----------------15----------------15----------------------------
D|----------------------------------------------------------------------------------------
A|----------------------------------------------------------------------------------------
E|----------------------------------------------------------------------------------------

Stave 4:

E|-15-17p15----15-19p15----|-------------------------------------------------
B|----------17----------17-|-------15----------------------------------------
G|-------------------------|-14b16----16r14p12----12-------------------------
D|-------------------------|-------------------14----14p12----12-------------
A|-------------------------|-------------------------------14----14p12-------
E|-------------------------|-------------------------------------------15-12-

http://www.guitartabcreator.com
Guitar Tab Creator is intended to store guitar tab created through the tool. It currently does not support in-line text editing. Any text you place in here will be lost. If you need to comment on your tab, please use the "Tab Notes" section located below.