Sound will begin in 5 seconds

LICKS EM F ou Dm

01234567891011121314151617181920212223
E
B
G
D
A
E
B
0 1 2 3 4 5 6 7 8 9 10 11 12 13 14 15 16 17 18 19 20 21 22 23
Song Science #1: How Pros Use 6 Chords to Write Hit Songs
(/) Slide Up  (\) Slide Down  (h) Hammer On  (p) Pull Off  (b) Bend (r) Release (v) Vibrato

Stave 1:

E|-10----------------10-13p10----15p10----17p13----15p13----------------|-
B|----13-10-------10----------10-------10-------15-------15-------------|-
G|----------12b14-------------------------------------------14----------|-
D|-------------------------------------------------------------15p14----|-
A|-------------------------------------------------------------------17-|-
E|----------------------------------------------------------------------|-

Stave 2:

E|-8-10-------------10---------------------------------------------------------------------------|-
B|------8-10-8h10p8----8-10-12----------------12-------------------------------------15-17-18b20-|-
G|-----------------------------10-12-10h12p10----10-12-15----------------15----------------------|-
D|--------------------------------------------------------12-14-12h14p12----12-14-17-------------|-
A|-----------------------------------------------------------------------------------------------|-
E|-----------------------------------------------------------------------------------------------|-

Stave 3:

E|-
B|-
G|-
D|-
A|-
E|-

http://www.guitartabcreator.com
Guitar Tab Creator is intended to store guitar tab created through the tool. It currently does not support in-line text editing. Any text you place in here will be lost. If you need to comment on your tab, please use the "Tab Notes" section located below.