Sound will begin in 5 seconds

LICKS EM D MAIOR

01234567891011121314151617181920212223
E
B
G
D
A
E
B
0 1 2 3 4 5 6 7 8 9 10 11 12 13 14 15 16 17 18 19 20 21 22 23
Song Science #1: How Pros Use 6 Chords to Write Hit Songs
(/) Slide Up  (\) Slide Down  (h) Hammer On  (p) Pull Off  (b) Bend (r) Release (v) Vibrato

Stave 1:

E|-17b19-17-14-17-14h15p14----14----------------------------------|----------------------14-17b19-
B|-------------------------17----17b19-17-15-17-15-14-15-14-------|-------------14-15-17----------
G|----------------------------------------------------------14-16-|-------14-16-------------------
D|----------------------------------------------------------------|-14-16-------------------------
A|----------------------------------------------------------------|-------------------------------
E|----------------------------------------------------------------|-------------------------------

Stave 2:

E|-17b19-14-17-14----------------|-|-|-17b19b19b19-17-14-17----14-------14-------------14-------14-
B|----------------17b19-17-15----|-|-|----------------------------17b19----17b19-14-17----17-14----
G|----------------------------16-|-|-|-------------------------------------------------------------
D|-------------------------------|-|-|-------------------------------------------------------------
A|-------------------------------|-|-|-------------------------------------------------------------
E|-------------------------------|-|-|-------------------------------------------------------------

Stave 3:

E|-------14----------|----------------------------2-5-7----5-7-8----7-8-10----8-10-12-10-12-14-
B|-17-14-------14----|----------------------2-3-5----------------------------------------------
G|----------16----16-|----18-16-18-16---2-4----------------------------------------------------
D|-------------------|-16-------------4--------------------------------------------------------
A|-------------------|-------------------------------------------------------------------------
E|-------------------|-------------------------------------------------------------------------

Stave 4:

E|----------------------14----------------------14-17b19-17-14----------------|-|-|-
B|-17-17b19----14-15-17----17-15-------14-15-17----------------17b19-17-15----|-|-|-
G|----------16-------------------16-16-------------------------------------16-|-|-|-
D|----------------------------------------------------------------------------|-|-|-
A|----------------------------------------------------------------------------|-|-|-
E|----------------------------------------------------------------------------|-|-|-

http://www.guitartabcreator.com
Guitar Tab Creator is intended to store guitar tab created through the tool. It currently does not support in-line text editing. Any text you place in here will be lost. If you need to comment on your tab, please use the "Tab Notes" section located below.