Sound will begin in 5 seconds

LICKS EM C#m

01234567891011121314151617181920212223
E
B
G
D
A
E
B
0 1 2 3 4 5 6 7 8 9 10 11 12 13 14 15 16 17 18 19 20 21 22 23
Song Science #1: How Pros Use 6 Chords to Write Hit Songs
(/) Slide Up  (\) Slide Down  (h) Hammer On  (p) Pull Off  (b) Bend (r) Release (v) Vibrato

Stave 1:

E|----------------------------------------------9-9------12p9----14-14p12----|-16p12----16p12----16p12-
B|-----------------------------9-9------12p9--------12-9------12----------14-|-------14-------14-------
G|------------9-9------11p9--------11-9------11------------------------------|-------------------------
D|-11-11p9--------11-9------11-----------------------------------------------|-------------------------
A|---------11----------------------------------------------------------------|-------------------------
E|---------------------------------------------------------------------------|-------------------------

Stave 2:

E|-17p12----17p12----17p12-16p12----16p12----16p12-14p11----11-12p11-------------|-
B|-------14-------14-------------12-------12-------------12----------14-12----14-|-
G|-------------------------------------------------------------------------------|-
D|-------------------------------------------------------------------------------|-
A|-------------------------------------------------------------------------------|-
E|-------------------------------------------------------------------------------|-

Stave 3:

E|----11-12-11h12p11-------19-17-16-14-|----21-21-------21-
B|-14----------------14-12-------------|-14-------14-14----
G|-------------------------------------|-------------------
D|-------------------------------------|-------------------
A|-------------------------------------|-------------------
E|-------------------------------------|-------------------

http://www.guitartabcreator.com
Guitar Tab Creator is intended to store guitar tab created through the tool. It currently does not support in-line text editing. Any text you place in here will be lost. If you need to comment on your tab, please use the "Tab Notes" section located below.