Sound will begin in 5 seconds

LICKS EM C MAIOR

01234567891011121314151617181920212223
E
B
G
D
A
E
B
0 1 2 3 4 5 6 7 8 9 10 11 12 13 14 15 16 17 18 19 20 21 22 23
Song Science #1: How Pros Use 6 Chords to Write Hit Songs
(/) Slide Up  (\) Slide Down  (h) Hammer On  (p) Pull Off  (b) Bend (r) Release (v) Vibrato

Stave 1:

E|-------------------|--------------8-------------------------|----------------------------|-
B|-------------------|---------8-10---10p8---8-10----12-13b---|-13-12-13p12----12----------|-
G|-------------------|-----7/9-------------9------------------|-------------14----14-12-14-|-
D|-------5-----------|-5/7------------------------------------|----------------------------|-
A|---5-7---7p5---5h7-|----------------------------------------|----------------------------|-
E|-8-----------8-----|----------------------------------------|----------------------------|-

Stave 2:

E|-------12-15p12-------|---------------|-|--------8--------|-|----------10----------------------
B|----13----------13----|---------------|-|-10p8-----10p8---|-|-------10----13p10----------------
G|-12----------------12-|-9\5-----------|-|------9--------9-|-|-12b14-------------12-12p10----10-
D|----------------------|---------------|-|-----------------|-|----------------------------12----
A|----------------------|-----7-7/12-10-|-|-----------------|-|----------------------------------
E|----------------------|---------------|-|-----------------|-|----------------------------------

Stave 3:

E|----------------|---------------------------------10p8------8------------------
B|----------10----|--------------------------------------10-8---10p8-------------
G|-------10----12\|-7p5-----5----------------------------------------9\7-5p4-----
D|-10h12----------|-----7-5---7p5--------------------------------------------5/7-
A|----------------|---------------7-5p3-----3------------------------------------
E|----------------|---------------------5-3---5p3-0------------------------------

Stave 4:

E|-15----8p5h8----12----8p5---------------------------------------------------------
B|--------------------------15----8p5h6----12----6p5--------------------------------
G|---------------------------------------------------12----7p5h7----12----7p5----15-
D|----------------------------------------------------------------------------------
A|----------------------------------------------------------------------------------
E|----------------------------------------------------------------------------------

http://www.guitartabcreator.com
Guitar Tab Creator is intended to store guitar tab created through the tool. It currently does not support in-line text editing. Any text you place in here will be lost. If you need to comment on your tab, please use the "Tab Notes" section located below.