Sound will begin in 5 seconds

LICKS E MAIOR

01234567891011121314151617181920212223
E
B
G
D
A
E
B
0 1 2 3 4 5 6 7 8 9 10 11 12 13 14 15 16 17 18 19 20 21 22 23
Song Science #1: How Pros Use 6 Chords to Write Hit Songs
(/) Slide Up  (\) Slide Down  (h) Hammer On  (p) Pull Off  (b) Bend (r) Release (v) Vibrato

Stave 1:

E|--12-----5p0h5h9--|--|--12-----7p0h4h7--|--|--12-----5p0h2h5--|--|--12-----7p0h4h7-----12--|--|--
B|------------------|--|------------------|--|------------------|--|-------------------------|--|--
G|------------------|--|------------------|--|------------------|--|-------------------------|--|--
D|------------------|--|------------------|--|------------------|--|-------------------------|--|--
A|------------------|--|------------------|--|------------------|--|-------------------------|--|--
E|------------------|--|------------------|--|------------------|--|-------------------------|--|--

Stave 2:

E|-----------------------------------------------------------------------------|--|--
B|--12p9p0h9h12/14--14h16p0h14h16/17-------------------------------------------|--|--
G|-----------------------------------------------------------------------------|--|--
D|-----------------------------------------------------------------------------|--|--
A|------------------------------------7h9p7p0h7h9/12--12h14p12p0h12h14/19--19--|--|--
E|-----------------------------------------------------------------------------|--|--

Stave 3:

E|---------------------------
B|---------------------------
G|------------------6--8--9--
D|------------7--9-----------
A|--7--9--11-----------------
E|---------------------------

http://www.guitartabcreator.com
Guitar Tab Creator is intended to store guitar tab created through the tool. It currently does not support in-line text editing. Any text you place in here will be lost. If you need to comment on your tab, please use the "Tab Notes" section located below.