Sound will begin in 5 seconds

LICK EM D ou Bm

01234567891011121314151617181920212223
E
B
G
D
A
E
B
0 1 2 3 4 5 6 7 8 9 10 11 12 13 14 15 16 17 18 19 20 21 22 23
Song Science #1: How Pros Use 6 Chords to Write Hit Songs
(/) Slide Up  (\) Slide Down  (h) Hammer On  (p) Pull Off  (b) Bend (r) Release (v) Vibrato

Stave 1:

E|---------7-10------------------------------------|---------------------------|-
B|-7-10b12------10b12r10-7-10------7-10------------|---------------------------|-
G|----------------------------9b11------9b11p9-7---|-7-9-----------------------|-
D|-----------------------------------------------9-|-----7-9-------------------|-
A|-------------------------------------------------|---------9-8-7-5-7/9\7-5---|-
E|-------------------------------------------------|-------------------------7-|-

Stave 2:

E|-17b19r17b19----14----14-------|----------------------------------------|-
B|-------------------15----15----|----------------------------------------|-
G|----------------------------16-|-16-14-16-16-14-------------------------|-
D|-------------------------------|----------------16-14----14-14-14-12----|-
A|-------------------------------|-------------------------------------14-|-
E|-------------------------------|----------------------------------------|-

Stave 3:

E|-12-14-15-14-15-17-17b19r17-17p15-14-15p14-12-14p12----------------|-
B|----------------------------------------------------15-15b17r15b17-|-
G|-------------------------------------------------------------------|-
D|-------------------------------------------------------------------|-
A|-------------------------------------------------------------------|-
E|-------------------------------------------------------------------|-

http://www.guitartabcreator.com
Guitar Tab Creator is intended to store guitar tab created through the tool. It currently does not support in-line text editing. Any text you place in here will be lost. If you need to comment on your tab, please use the "Tab Notes" section located below.