Sound will begin in 5 seconds

A HA TOM D

Chords
01234567891011121314151617181920212223
E
B
G
D
A
E
B
0 1 2 3 4 5 6 7 8 9 10 11 12 13 14 15 16 17 18 19 20 21 22 23
Song Science #1: How Pros Use 6 Chords to Write Hit Songs
(/) Slide Up  (\) Slide Down  (h) Hammer On  (p) Pull Off  (b) Bend (r) Release (v) Vibrato

Stave 1:

E|-----------------------------------|---------------------------------|-------
B|-------------------------5b7r5-7\5-|---------------------------------|-------
G|-7-7-7p6-4-2-4/6-7-6\4-2-----------|-7-7-7\6\4-2h4/6-7p6-4-2-4/6\4-2-|-7-7-6-
D|-----------------------------------|---------------------------------|-------
A|-----------------------------------|---------------------------------|-------
E|-----------------------------------|---------------------------------|-------

Stave 2:

E|-------------------------|-|-------------------------------------------------------------
B|-------------------------|-|------------------------------5-5b7r5----------------9----10-
G|-7-----------------------|-|----------------------------6-------------------6------------
D|---7-7-7-7-7-7p6-7p6-7-4-|-|-7----6----7-------------------------------------------------
A|-------------------------|-|----------------7-7/9-9\7-7-----------7-7/9-9\7--------------
E|-------------------------|-|-------------------------------------------------------------

Stave 3:

E|----------------------|-|-19-2---13p12p10----21-22-17-19-|-
B|-12-12b14r12p10-15b17-|-|-19---3-------------------------|-
G|----------------------|-|----2---------------------------|-
D|----------------------|-|--------------------------------|-
A|----------------------|-|--------------------------------|-
E|----------------------|-|--------------------------------|-

Stave 4:

E|-------------------------------------------------------|----------------------------------------------
B|-15/17\15-15b17-15-14-14-14-14-14----17b19r17-17/19\17-|-15-15-15p14\12----14-14/15\14-12----12-14p12-
G|----------------------------------14-------------------|----------------14----------------14----------
D|-------------------------------------------------------|----------------------------------------------
A|-------------------------------------------------------|----------------------------------------------
E|-------------------------------------------------------|----------------------------------------------

Stave 5:

E|----|----------------------------------------------|-|--------------------------16-17----21p19-17-
B|----|-12/15-15-15-15-------------------------------|-|---9-10----10-17-18----14-------------------
G|-14-|----------------14-14-14-14-14-14p13-14-14-11-|-|-2------------------------------------------
D|----|----------------------------------------------|-|--------------------------------------------
A|----|----------------------------------------------|-|--------------------------------------------
E|----|----------------------------------------------|-|--------------------------------------------

Stave 6:

E|-22b23b23b23-
B|-------------
G|-------------
D|-------------
A|-------------
E|-------------

http://www.guitartabcreator.com
Guitar Tab Creator is intended to store guitar tab created through the tool. It currently does not support in-line text editing. Any text you place in here will be lost. If you need to comment on your tab, please use the "Tab Notes" section located below.