Sound will begin in 5 seconds

ESCALE DE C LIKSSSS

01234567891011121314151617181920212223
E
B
G
D
A
E
B
0 1 2 3 4 5 6 7 8 9 10 11 12 13 14 15 16 17 18 19 20 21 22 23
Song Science #1: How Pros Use 6 Chords to Write Hit Songs
(/) Slide Up  (\) Slide Down  (h) Hammer On  (p) Pull Off  (b) Bend (r) Release (v) Vibrato

Stave 1:

E|-----------------------------------------10-12-13-|-------------------------------------------12-13-
B|--------------------------------10-12-13----------|----------------------------------12-13-15-------
G|------------------------9-10-12-------------------|----------------------------12-14----------------
D|----------------9-10-12---------------------------|-------------------12-14-15----------------------
A|----------10-12-----------------------------------|----------12-14-15-------------------------------
E|-10-12-13-----------------------------------------|-12-13-15----------------------------------------

Stave 2:

E|-------10-------------10-------|-------15----------------------------|-------------------------|-
B|-13b15----13p10----------13p10-|-13b15----15r13-10-------13----------|-------------------------|-
G|----------------12b14----------|-------------------12b14----14r12-10-|---------9h10h12---------|-
D|-------------------------------|-------------------------------------|-9h10h12---------9h10h12-|-
A|-------------------------------|-------------------------------------|-------------------------|-
E|-------------------------------|-------------------------------------|-------------------------|-

Stave 3:

E|-------------------------------------------15-17-|-------------------------------------------17-19-20-
B|----------------------------------15-17-18-------|----------------------------------17-18-20----------
G|-------------------------14-16-17----------------|-------------------------16-17-19-------------------
D|----------------14-15-17-------------------------|-------------------17-19----------------------------
A|-------14-15-17----------------------------------|----------17-19-20----------------------------------
E|-15-17-------------------------------------------|-17-19-20-------------------------------------------

Stave 4:

E|-17b19r17-15----------------------------------------|-
B|-------------18b20r18-15----------------------------|-
G|-------------------------17b19r17-15----------------|-
D|-------------------------------------17b19r17-15-17-|-
A|----------------------------------------------------|-
E|----------------------------------------------------|-

http://www.guitartabcreator.com
Guitar Tab Creator is intended to store guitar tab created through the tool. It currently does not support in-line text editing. Any text you place in here will be lost. If you need to comment on your tab, please use the "Tab Notes" section located below.