Sound will begin in 5 seconds

ESCALAS MAIORES C D E F G A B

01234567891011121314151617181920212223
E
B
G
D
A
E
B
0 1 2 3 4 5 6 7 8 9 10 11 12 13 14 15 16 17 18 19 20 21 22 23
Song Science #1: How Pros Use 6 Chords to Write Hit Songs
(/) Slide Up  (\) Slide Down  (h) Hammer On  (p) Pull Off  (b) Bend (r) Release (v) Vibrato

Stave 1:

E|--------0--1--3--5--7--8--8--|--8--10--12--12--13--15--17--17--19--20--|--------------------------
B|--1--3-----------------------|-----------------------------------------|--13--15--17--18--20--22--
G|-----------------------------|-----------------------------------------|--------------------------
D|-----------------------------|-----------------------------------------|--------------------------
A|-----------------------------|-----------------------------------------|--------------------------
E|-----------------------------|-----------------------------------------|--------------------------

Stave 2:

E|-----------3--5--5--7--9--10--|--10--12--14--15--17--19--21--22--|----------------------19--21--22--
B|--3--5--7---------------------|----------------------------------|--15--17--19--20--22--------------
G|------------------------------|----------------------------------|----------------------------------
D|------------------------------|----------------------------------|----------------------------------
A|------------------------------|----------------------------------|----------------------------------
E|------------------------------|----------------------------------|----------------------------------

Stave 3:

E|--0--1--4--5--7--9--11--12--|--12--13--16--17--19--21----------|------------------
B|----------------------------|--------------------------16--17--|--17--18--21--22--
G|----------------------------|----------------------------------|------------------
D|----------------------------|----------------------------------|------------------
A|----------------------------|----------------------------------|------------------
E|----------------------------|----------------------------------|------------------

Stave 4:

E|--1--3--5--6--8--10--12--13--|--13--15--17--18--20--22----------|--------------------------------
B|-----------------------------|--------------------------17--18--|--6--8--10--11--13--15--17--18--
G|-----------------------------|----------------------------------|--------------------------------
D|-----------------------------|----------------------------------|--------------------------------
A|-----------------------------|----------------------------------|--------------------------------
E|-----------------------------|----------------------------------|--------------------------------

Stave 5:

E|--3--5--7--8--10--12--14--15--|--15--17--19--20--------------|---------------------------------
B|------------------------------|------------------17--19--20--|--8--10--12--13--15--17--19--20--
G|------------------------------|------------------------------|---------------------------------
D|------------------------------|------------------------------|---------------------------------
A|------------------------------|------------------------------|---------------------------------
E|------------------------------|------------------------------|---------------------------------

Stave 6:

E|--5--7--9--10--12--14--16--17--17--19--21--22----------------------------------------------------
B|-----------------------------------------------17--19--21--22--0--2--3--5--7--9--10--12--14--15--
G|-------------------------------------------------------------------------------------------------
D|-------------------------------------------------------------------------------------------------
A|-------------------------------------------------------------------------------------------------
E|-------------------------------------------------------------------------------------------------

Stave 7:

E|----------------------------|----------------------18--19--
B|--0--2--4--5--7--9--11--12--|--14--16--17--19--21----------
G|----------------------------|------------------------------
D|----------------------------|------------------------------
A|----------------------------|------------------------------
E|----------------------------|------------------------------

http://www.guitartabcreator.com
Guitar Tab Creator is intended to store guitar tab created through the tool. It currently does not support in-line text editing. Any text you place in here will be lost. If you need to comment on your tab, please use the "Tab Notes" section located below.